silverchair - orchestral tear cash-flowsilverchair - orchestral tear cash-flow
homeGuitar TabsGuitar GearMP3sLyricsDiscographyPicsDownloadsToursSurvey

owned by: Denis Bourdon (dbourdon@dbourdon.com) - version francophone version francophone

Neon Ballroom       Neon Ballroom guitar tabs

All songs transcribed by:
Denis Bourdon (e-mail: dbourdon@dbourdon.com)

Important notice: PLEASE ask me permission to use these tabs, and if you put them on another website, give me full credits on each by puting both my e-mail address and the URL of the site (http://www.dbourdon.com/sc). Thanks.

last update on 15/11/99:

  • new tab for Point of View and Paint Pastel Princess
  • I have reworked all the tabs to use the same tablature explanation, and I have added details about alternative tunings.

    Neon Ballroom
    1. Emotion Sickness
    2. Anthem for the Year 2000
    3. Ana's Song (Open Fire)
    4. Spawn Again
    5. Miss You Love
    6. Dearest Helpless
    7. Do You Feel The Same
    8. Black Tangled Heart
    9. Point of View
    10. Satin Sheets
    11. Paint Pastel Princess
    12. Steam Will Rise

    Neon Ballroom Japanese edition EP
    13. Anthem for the Year 2000 (original version)

    Anthem for the Year 2000 EP
    1. Anthem for the Year 2000
    2. London's Burning
    3. Untitled
    4. The Millenium Bug (The Paul Mac Remix)

    Anthem for the Year 2000
    vinyl limited edition
    1. Anthem for the Year 2000
    2. Trash

    Neon Ballroom Bonus CD
    1. Anthem for the Year 2000 (a cappella)
    2. Spawn (Pre-Vitro Version)

    Ana's Song EP
    1. Ana's Song (Open Fire)
    2. Trash
    3. Anthem for the Year 2000 (a cappella)
    4. Ana's Song (Open Fire) (acoustic)

    Miss You Love EP
    1. Miss You Love
    2. Wasted
    3. Fix Me
    4. Minor Threat

    Paint Pastel Princess EP
    1. Paint Pastel Princess
    2. Ana's Song (Open Fire) (acoustic remix)

    Miscellaneous: additional live tabs
  • Emotion Sickness (live)
  • Anthem for the Year 2000 (live)
    (you'll find a MP3 file of AY2K live on the MP3s section)
  • Kick Out the Jams
    (MC5 cover played live between August and December 1999)
  • I want to thank some people for correcting mistakes: Justin (paquette@adan.kingston.net), Christian (rhuckus@hotmail.com), Mike (mike_s@prodigy.net), Erin (undertow@mpx.com.au), Owen (johnsie@webtv.net), Nicolas (Chairdan@wanadoo.fr), Benn (eskenderba@alpha7.curtin.edu.au), Daniel (DanielMenthe@compuserve.com).


    Tablature explanation

    b    : bend
    4b5r4: bend and release (strike 4, bend up to 5, and release to 4)
    /    : slide up
    \    : slide down
    h    : hammer-on
    p    : pull-off
    x    : muffled string
    P.M. : palm mute
    ~    : tremolo
    =    : hold on
    

    Alternative tunings

    By watching videos (Rockpalast, Dusseldörf, April 4th 1999 and "Inside the Neon Ballroom"), one can remark that Daniel uses alternative tunings (derivated from the usual Dropped-D tuning):

  • for Emotion Sickness and Paint Pastel Princess: Open Db (or C#), low to high: Db-Ab-Db-Ab-Db-Db (the two higher strings are at the same level).
  • for Point of View: Open Absus2, low to high Eb-Ab-Eb-Ab-Bb-Eb.
  • AY2K and Spawn Again are the only songs played in Dropped-D tuning.
  • the rest of the songs are in standard tuning.

    Daniel also uses the first tuning to play Spawn Again live, but you can play it with a normal Dropped-D as Daniel uses mainly the three lowest strings.
    The official tabs don't agree with these tunings but believe me and watch videos!
    And in a magazine, it is said that the tuning for Point of View is G#-G#-C#-F#-A#-D# low to high, and the one for Emotion Sickness, Paint Pastel Princess and Spawn Again is G#-D#-G#-C-D#-G# low to high.


    1. Emotion Sickness

    Alternative tuning; Open Db: Db-Ab-Db-Ab-Db-Db low to high
    from standard tuning, from low to high:
    * tune down the low E string to Db (3 half-steps down)
    * tune down the A string to Ab (1 half-step down)
    * tune down the D string to Db (1 half-step down)
    * tune up the G string to Ab (1 half-step up)
    * tune up the B string to Db (2 half-steps up)
    * tune down the high E string to Db (3 half-steps down), so that the two strings are the same

    [0:00]
            D5     Fadd6  A#     A5add6/9
    Db||----0-0-0--0-0-0--0-0-0--0-0-0----|| x2
    Db||----0-0-0--0-0-0--0-0-0--3-3-3----||
    Ab||-o--0-0-0--0-0-0--3-3-3--3-3-3--o-||
    Db||-o--0-0-0--3-3-3--3-3-3--3-3-3--o-||
    Ab||----0-0-0--3-3-3--1-1-1--0-0-0----||
    Db||----0-0-0--3-3-3------------------||
    
    [0:08]   (hold a Bb5 chord form)
    |-----------------------------------------------------------------|
    |-----------------------------------------------------------------|
    |-----3-------3-------3-------3-------3-------3-------0-------0---|
    |---3---3---3---3---3---3---3---3---3---3---3---3---3---3---3---3-|
    |-----------------1-------0-------1-------1-------1-------1-------|
    |-0-------3-------------------------------------------------------|
    Erupt again ignore the pill
    
    |-----------------------------------------------------------------|
    |-----------------------------------------------------------------|
    |-----3-------3-------3-------3-------3-------3-------3-------3---|
    |---3---3---3---3---3---3---3---3---3---3---3---3---3---3---2---2-|
    |-----------------1-------0-------1-------1-------3-------3-------|
    |-0-------3-------------------------------------------------------|
    And I won't let it show
    
    |-----------------------------------------------------------------|
    |-------------------------------------0-------0-------0------0----|
    |-----3-------3-------3-------3---------3-------3-------3------3--|
    |---3---3---3---3---3---3---3---3---3-------3------3--------3-----|
    |-----------------1-------0-------1-------1-------1-------1-------|
    |-0-------3-------------------------------------------------------|
    Sacrifice the tortures
    
    |-----------------------------------------------------------------|
    |-----------------------------------------------------------------|
    |-----3-------3-------3-------3-------3-------3-------3-------3---|
    |---3---3---3---3---3---3---3---3---3---3---3---3---3---3---2---2-|
    |-----------------1-------0-------1-------1-------3-------3-------|
    |-0-------3-------------------------------------------------------|
    Orchestral tear cash-flow
    
    [0:35]
      D5     F5add6 A#     A5add6/9
    |-0-0-0--0-0-0--0-0-0--0-0-0-|
    |-0-0-0--0-0-0--0-0-0--3-3-3-|
    |-0-0-0--0-0-0--3-3-3--3-3-3-|
    |-0-0-0--3-3-3--3-3-3--3-3-3-|
    |-0-0-0--3-3-3--1-1-1--0-0-0-|
    |-0-0-0--3-3-3---------------|
    
    [0:39]
    |-----------------------------------------------------------------|
    |-------------------------------------0-------0-------0-------0---|
    |-----3-------3-------3-------3---------3-------3-------3-------3-|
    |---3---3---3---3---3---3---3---3---3-------3-------3-------3-----|
    |-----------------1-------0-------1-------1-------1-------1-------|
    |-0-------3-------------------------------------------------------|
    Increase delete escape defeat it's all that matters to you
    
    |-----------------------------------------------------------------|
    |-----------------------------------------------------------------|
    |-----3-------3-------3-------3-------3-------3-------3-------3---|
    |---3---3---3---3---3---3---3---3---3---3---3---3---3---3---2---2-|
    |-----------------1-------0-------1-------1-------3-------3-------|
    |-0-------3-------------------------------------------------------|
    Cotton case for an iron pill
    
    [0:53]
    |----------------------------------------------------|
    |----------------------------------------------------|
    |-----7-------7-------5-------5-------4-------4----7-|
    |---7---7---7---7---7---7---7---7---7---7---7---7--7-|
    |-0-------0-------0-------0-------0-------0--------0-|
    |----------------------------------------------------|
    Distorted eyes
    When everything is clearly dying
    
    [1:00]                                                                     x4
    ||-------------------------------------------------------------------------||
    ||--------7-------5--------8--------7-------7-------7-------7-------7------||
    ||-o----8---8---7---7---10---10---8---8---7---7---7---7---4---4---4---4--o-||
    ||-o--0-------0-------0---------0----------------------------------------o-||
    ||--------------------------------------0-------0-------0-------0----------||
    ||-------------------------------------------------------------------------||
    Burn my knees and (x3)
    
    [1:28] Distortion on                     x2
    ||--------7---------7-----7---------7----||
    ||----------------0---------------0------||
    ||-o----4---4---4-------4---4---4------o-||
    ||-o-----------------------------------o-||
    ||----0-------0-------0-------0----------||
    ||---------------------------------------||
          ***     ***     ***     ***           *:P.M.
    
    [1:32] Distortion off
      D5                              C5              A5
    |-----------------------------------------------------------------|
    |-----------------------------------------------------------------|
    |-5-5-5-5-5-5-5-5-5-5-5-5-5-5-5-5-3-3-3-3-3-3-3-3-3-3-3-3-3-3-3-3-|
    |-7-7-7-7-7-7-7-7-7-7-7-7-7-7-7-7-5-5-5-5-5-5-5-5-2-2-2-2-2-2-2-2-|
    |-5-5-5-5-5-5-5-5-5-5-5-5-5-5-5-5-3-3-3-3-3-3-3-3-0-0-0-0-0-0-0-0-|
    |-----------------------------------------------------------------|
    (the last A5 chord is only implied by the keyboard, the guitar plays C5)
    
          D5                              C5                                 x3
    ||-----------------------------------------------------------------------||
    ||-----------------------------------------------------------------------||
    ||-o--5-5-5-5-5-5-5-5-5-5-5-5-5-5-5-5-3-3-3-3-3-3-3-3-3-3-3-3-3-3-3-3--o-||
    ||-o--7-7-7-7-7-7-7-7-7-7-7-7-7-7-7-7-5-5-5-5-5-5-5-5-5-5-5-5-5-5-5-5--o-||
    ||----5-5-5-5-5-5-5-5-5-5-5-5-5-5-5-5-3-3-3-3-3-3-3-3-3-3-3-3-3-3-3-3----||
    ||-----------------------------------------------------------------------||
    Emotion sickness
    Addict with no heroine
    Emotion sickness
    
    [2:00]
    |----------------------------------------------------|
    |----------------------------------------------------|
    |-----7-------7-------5-------5-------4-------4----7-|
    |---7---7---7---7---7---7---7---7---7---7---7---7--7-|
    |-0-------0-------0-------0-------0-------0--------0-|
    |----------------------------------------------------|
    Distorted eyes
    When everything is clearly dying
    
    [2:08] Distortion on
          D5                 C5
    ||--------------------------------------------|| x2
    ||--------------------------------------------||
    ||-o--5------5------5-5-\3------3------3-3--o-||
    ||-o--7------7------7-7-\5------5------5-5--o-||
    ||----5--5-5-5--5-5-5-5-\3--3-3-3--3-3-3-3----||
    ||--------------------------------------------||
             ***    ***         ***    ***         *:P.M.
    
          D5                 A#5       B5
    ||----------------------------------------------|| x4
    ||----------------------------------------------||
    ||-o--5------5------5-5-\1------1--2-----2-2--o-||
    ||-o--7------7------7-7-\3------3--4-----4-4--o-||
    ||----5--5-5-5--5-5-5-5-\1--1-1-1--2-2-2-2-2----||
    ||----------------------------------------------||
             ***    ***         ***      ***         *:P.M.
    
    [2:52]                                                                    x4
    ||------------------------------------------------------------------------||
    ||--------7-------5--------8--------7-----3-------3-------2------0--------||
    ||-o----8---8---7---7---10---10---8---8-----0-------0-------0------0----o-||
    ||-o--0-------0-------0---------0-------------0-------0-------0------0--o-||
    ||--------------------------------------3-------3-------3-------3---------||
    ||------------------------------------------------------------------------||
    Burn my knees and
    Burn my knees and pray
    Burn my knees and
    Burn my knees and pray
    
    [3:22]
          D5                              C5                                 x4
    ||-----------------------------------------------------------------------||
    ||-----------------------------------------------------------------------||
    ||-o--5-5-5-5-5-5-5-5-5-5-5-5-5-5-5-5-3-3-3-3-3-3-3-3-3-3-3-3-3-3-3-3--o-||
    ||-o--7-7-7-7-7-7-7-7-7-7-7-7-7-7-7-7-5-5-5-5-5-5-5-5-5-5-5-5-5-5-5-5--o-||
    ||----5-5-5-5-5-5-5-5-5-5-5-5-5-5-5-5-3-3-3-3-3-3-3-3-3-3-3-3-3-3-3-3----||
    ||-----------------------------------------------------------------------||
    Get up get up get up get up
    Get up get up get up
    Won't you stop my pain
    
    [3:52]
          D5     F5add6 A#     A5add6/9 x3  A#    Aadd6/9 Aadd9
    ||----0-0-0--0-0-0--0-0-0--0-0-0----||--0-0-0--0-0-0--0-0-0--|
    ||----0-0-0--0-0-0--0-0-0--3-3-3----||--0-0-0--3-3-3--2-2-2--|
    ||-o--0-0-0--0-0-0--3-3-3--3-3-3--o-||--3-3-3--3-3-3--3-3-3--|
    ||-o--0-0-0--3-3-3--3-3-3--3-3-3--o-||--3-3-3--0-0-0--0-0-0--|
    ||----0-0-0--3-3-3--1-1-1--0-0-0----||--1-1-1--3-3-3--3-3-3--|
    ||----0-0-0--3-3-3------------------||-----------------------|
    
    [4:13]                                                                    x4
    ||--------7---8-----10-----8-------0---------------------------------0------||
    ||--------------7------7-----7-------7-----------0-------------2-------2----||
    ||-o----8---8-----8------8-----8-------------4-----4-------3-----3--------o-||
    ||-o--0--------------------------0-----0---4---------4---3---3-----3------o-||
    ||---------------------------------------2-----2-------1--------------------||
    ||--------------------------------------------------------------------------||
    
    [4:39]
          D5                                A#                             x4
    ||----7--7-7-7--7-7--7-7--7-7-7-7--|----0--0-0-0--0-0--0-0--0-0-0-0----||
    ||----7--7-7-7--7-7--7-7--7-7-7-7--|----0--0-0-0--0-0--0-0--0-0-0-0----||
    ||----8--8-8-8--8-8--8-8--8-8-8-8--|----3--3-3-3--3-3--3-3--3-3-3-3----||
    ||----0--0-0-0--0-0--0-0--0-0-0-0--|----3--3-3-3--3-3--3-3--3-3-3-3----||
    ||----0--0-0-0--0-0--0-0--0-0-0-0--|----1--1-1-1--1-1--1-1--1-1-1-1----||
    ||----0--0-0-0--0-0--0-0--0-0-0-0--|-----------------------------------||
          v  ^ v ^  v ^  ^ v  v ^ v ^       v  ^ v ^  v ^  ^ v  v ^ v ^
                                         (strumming patern: v=down; ^=up)
    Emotion sickness
    Addict with no heroine
    Good things will pass
    It helps with excess access
    Lessons learnt
    Emotion sickness
    Lessons learnt
    
    [5:35]
    |-----7---8-----10-----8-------0-------------------------------------|
    |-----------7------7-----7-------7-----------0-------------0-------0-|
    |---8---8-----8------8-----8-------0-----3-----3-------4-----4---4---|
    |-0--------------------------0---------3---------3---4---4-----4-----|
    |------------------------------------1-----1-------2-----------------|
    |--------------------------------------------------------------------|
    
    |-----7---8-----10-----8-------0---------------------|
    |-----------7------7-----7-------7-----------0-------|
    |---8---8-----8------8-----8-------0-----3-----3---4-|
    |-0--------------------------0---------3---------3-4-|
    |------------------------------------1-----1-------2-|
    |----------------------------------------------------|
    
  • Emotion Sickness (live)

    For the part at approximately [2:30], Daniel plays a lead part live:
    
      D5
    |--------------------------------|---------------------------------------|
    |--------------------------------|---------------------------------------|
    |-5------5-----\1------1--2------|-5--------------------1------1--2------|
    |-7------7-----\3------3--4--3-3-|-7-------12-10-8-7-5--3------3--4--3-3-|
    |-5--5-5-5--12-\1--1-1-1--2------|-5--5-5---------------1--1-1-1--2------|
    |--------------------------------|---------------------------------------|
         ***             ***              ***                                *:P.M.
    
    [Top]
    2. Anthem for the Year 2000

    Dropped-D tuning. Counters are relative to the album version, and to the single version between brackets.

    [0:00] ([0:00]) "studio sounds"
    
    [0:17] ([0:04]) drums in
    
    [0:28] ([0:09]) guitars in - main riff
    rhythm guitar
        A    G A G  E F  C D     A    G A G  E F  C D
    e|------------------------|------------------------|
    B|------------------------|------------------------|
    G|-------------------5----|-------------------5----|
    D|--7--7-5-7-5--2-3--5-0--|--7--7-5-7-5--2-3--5-0--|
    A|--7--7-5-7-5--2-3--3-0--|--7--7-5-7-5--2-3--3-0--|
    D|--7--7-5-7-5--2-3----0--|--7--7-5-7-5--2-3----0--|
    lead guitar (use a wah pedal set in the same position
                  -quite close- to obtain a similar sound)
    e|------------------------|------------------------|
    B|------------------------|------------------------|
    G|------------------------|------------------------|
    D|-7----------------------|--5-5h7-----------------|
    A|------------------------|------------------------|
    D|------------------------|------------------------|
    
    rhythm guitar
        A    G A G  E F  C D     A    G A G  E F  C D
    |------------------------|------------------------|
    |------------------------|------------------------|
    |-------------------5----|-------------------5----|
    |--7--7-5-7-5--2-3--5-0--|--7--7-5-7-5--2-3--5-0--|
    |--7--7-5-7-5--2-3--3-0--|--7--7-5-7-5--2-3--3-0--|
    |--7--7-5-7-5--2-3----0--|--7--7-5-7-5--2-3----0--|
    lead guitar
    |------------------------|------------------------|
    |------------------------|------------------------|
    |--------5---7-----------|---------7-----9--------|
    |--5-5h7---7-------------|--5-5h7-----7-----------|
    |------------------------|------------------------|
    |------------------------|------------------------|
             |->let ring               |->let ring
    
    [0:50] ([0:41]) Verse - guitars out
    We are the youth, we'll take your fascism away
    We are the youth, apologise for another day
    We are the youth, and politicians are so sure
    We are the youth, and we are knocking on death's door
    
    [1:11] ([0:52]) Chorus
    rhythm guitar
        A    G A G  E F  C D     A    G A G  E F  C D
    e|------------------------|------------------------|
    B|------------------------|------------------------|
    G|-------------------5----|-------------------5----|
    D|--7--7-5-7-5--2-3--5-0--|--7--7-5-7-5--2-3--5-0--|
    A|--7--7-5-7-5--2-3--3-0--|--7--7-5-7-5--2-3--3-0--|
    D|--7--7-5-7-5--2-3----0--|--7--7-5-7-5--2-3----0--|
    lead guitar
    e|------------------------|------------------------|
    B|------------------------|------------------------|
    G|------------------------|-------------7----------|
    D|-7----------7-----------|--5-5h7------7----------|
    A|------------------------|------------------------|
    D|------------------------|------------------------|
             |->let ring           |->let ring
    Never knew we were living in a world with a mind that could be so sure
    Never knew we were living in a world with a mind that could be so small
    
    rhythm guitar
        A    G A G  E F  C D     A    G A G  E F  C D
    |------------------------|------------------------|
    |------------------------|------------------------|
    |-------------------5----|-------------------5----|
    |--7--7-5-7-5--2-3--5-0--|--7--7-5-7-5--2-3--5-0--|
    |--7--7-5-7-5--2-3--3-0--|--7--7-5-7-5--2-3--3-0--|
    |--7--7-5-7-5--2-3----0--|--7--7-5-7-5--2-3----0--|
    lead guitar
    |------------------------|------------------------|
    |------------------------|------------------------|
    |--------5---7-----------|------------7----\2-----|
    |--5-5h7---7-------------|--5-5h7-----5-----------|
    |------------------------|------------------------|
    |------------------------|------------------------|
             |->let ring               |->let ring
    Never knew we were living in a world and the world is an open court
    Maybe we don't want to live in a world where innocence is so short
    
    [1:33] ([1:13]) Break (with wah in extreme close position)
      A   D#
    |-------|
    |-------|
    |-2-----|
    |-2---1-|
    |-0---1-|
    |-----1-|
    We'll make it up to you in the year 2000 with...
    
    [1:39] ([1:20]) Lead part - first bar is not played on the single version
    |-------------|---------------|
    |-------------|---------------|
    |-----5---5---|-5-----4---5---|
    |-5/7---5---3-|---5/7---5---3-|
    |-------------|---------------|
    |-------------|---------------|
    
    [1:49] ([1:26]) Verse
    |-------------|-----------------|-----------------|-----------------|
    |-------------|-----------------|-----------------|-----------------|
    |-----5---5---|-5-------5---5---|-5-------5---5---|-5-------4---5---|
    |-5/7---5---3-|---5b7-----5---3-|---5b7-----5---3-|---5b7-----5---3-|
    |-------------|-----------------|-----------------|-----------------|
    |-------------|-----------------|-----------------|-----------------|
    Never knew we were living in a world with a mind that could be so sure
    Never knew we were living in a world with a mind that could be so small
    Never knew we were living in a world and the world is an open court
    Maybe we don't want to live in a world where innocence is so short
    
    [2:11] ([1:47]) Chorus
          A    G A G   E F  C D
    ||-----------------------------|| x4
    ||-----------------------------||
    ||-o--------------------5----o-||
    ||-o--7--7-5-7-5-7-2-3--5-0--o-||
    ||----7--7-5-7-5-7-2-3--3-0----||
    ||----7--7-5-7-5-7-2-3----0----||
    We'll make it up to you in the year 2000
    Build it up for you in the year 2000
    Make it up to you in the year 2000
    Build it up for you in the year 2000 with you...
    
    [2:32] ([2:09]) Bridge
          A            C D
    ||---------------|----------|| x2
    ||---------------|----------||
    ||-o-------------|-5------o-||
    ||-o--5/7-5/7----|-5-0-0--o-||
    ||----5/7-5/7----|-3-0-0----||
    ||----5/7-5/7----|---0-0----||
    
    [2:43] ([2:20]) 2nd lead part  (with slides all along)
    |-------------------------------------|
    |-------------------------------------|
    |-------------------------------------|
    |--------------------------9-10-12-14-|
    |-7-8-10--7-8-5--7-8-10-12------------|
    |-------------------------------------|
    Never knew we were living in a world with a world that could be so sure
    Never knew we were living in a world with a mind that could be so small
    Never knew we were living in a world and the world is an open court
    Maybe we don't want to live in a world, world who cares at all
    
    [3:16] ([2:53]) Chorus
          A    G A G   E F  C D
    ||-----------------------------|| x6
    ||-----------------------------||
    ||-o--------------------5----o-||
    ||-o--7--7-5-7-5-7-2-3--5-0--o-||
    ||----7--7-5-7-5-7-2-3--3-0----||
    ||----7--7-5-7-5-7-2-3----0----||
    We'll make it up to you in the year 2000
    Build it up for you in the year 2000
    Make it hard for you in the year 2000
    Build it up for you in the year 2000
    Make it hard for you in the year 2000
    Build it up for you in the year 2000 with you...
    
    [3:48] ([3:25]) End
          A            C D
    ||---------------|----------|| x2
    ||---------------|----------||
    ||-o-------------|-5------o-||
    ||-o--5/7-5/7----|-5-0-0--o-||
    ||----5/7-5/7----|-3-0-0----||
    ||----5/7-5/7----|---0-0----||
    
  • Anthem for the Year 2000 (live)

    You'll find a MP3 file of AY2K live on the MP3s section. Dropped-D tuning.

    Main riff for the first half of the song:
        A    G A G E6 F6 C D     A    G A G E6 F6 C   D       C
    e|------------------------|----------------------------------------|
    B|------------------------|----------------------------------------|
    G|------------------------|-------------------5-5/7-7-7-7\5-5-5-5--|
    D|--7--7-5-7-5--4-5--5-0--|--7--7-5-7-5--4-5--x-x-x-x-x-x-x-x-x-x--|
    A|--7--7-5-7-5--2-3--3-0--|--7--7-5-7-5--2-3--3-3/5-5-5-5\3-3-3-3--|
    D|--7--7-5-7-5--2-3----0--|--7--7-5-7-5--2-3-----------------------|
    
    Main riff for the first half of the song:
       A    G A G G E6 F6 C D
    |-------------------------|
    |-------------------------|
    |-------------------------|
    |--7--7-5-7-5-7-4-5--5-0--|
    |--7--7-5-7-5-7-2-3--3-0--|
    |--7--7-5-7-5-7-2-3----0--|
    
    The first time he sings "Never knew", he doesn't bend his notes,
    it's just slides. The second time, he uses a delay + reverb, and plays:
    |------------|-------------|
    |------------|-------------|
    |------------|-14----------|
    |------------|----14----14-|
    |------------|-------12----|
    |-\\\\\\\\\\-|-------------|
      pick slide
    [Top]
    3. Ana's Song (Open Fire)

    Standard tuning.

    [0:00] Verse
    acoustic guitar (2 guitars actually)
           D#sus2  Cm      Gm
    e||----6-6-6-6-3-3-3-3-3-3-3-3---3-3-3----|| x4
    B||----6-6-6-6-4-4-4-4-3-3-3-3---3-3-3----||
    G||-o--8-8-8-8-5-5-5-5-3-3-3-3---3-3-3--o-||
    D||-o--8-8-8-8-5-5-5-5-5-5-3-5---5-3-5--o-||
    A||----6-6-6-6-3-3-3-3-5-5-3-5---5-3-5----||
    E||--------------------3-3-3-3---3-3-3----||
    electric guitar (clean tone -play this for the first bar;
                     for the other, it's similar to the acoustic)
           D#      Cm      Gm
    e|-----------------------------------------|
    B|---------8-------4-------3-------3-------|
    G|-----------8-------5---3---3-------3-----|
    D|-------8-------5-------------------------|
    A|-----6-------3---------------------------|
    E|---------------------3-------3-----------|
    Please die Ana
    For as long as you're here we're not
    You make the sound of laughter
    And sharpened nails seem softer
    
    [0:23] Prechorus
    lead guitar
    ||-------------------------|| x2
    ||-------------------------||
    ||-o---------------------o-||
    ||-o------3/5-6-5--------o-||
    ||----1-1---------3-3/5----||
    ||-------------------------||
    And I need you now somehow (x2)
    
    [0:36] Chorus
      A#5     F5
    |-----------------|
    |-----------------|
    |-3-3-3-3---------|
    |-3-3-3-3-3-3-3-3-|
    |-1-1-1-1-3-3-3-3-|
    |---------1-1-1-1-|
    
          E               Asus2/F#          A
    ||--------0-------0-------0-------0---|-----0-------0-------0-------0------||
    ||--------0-------0-------0-------0---|-----2-------2-------2-------2------||
    ||-o------1-------1-------2-------2---|-----2-------2-------2-------2----o-||
    ||-o------2-------2-------2-------2---|-2-2-2-2-2-2-2-2-2-2-2-2-2-2-2-2--o-||
    ||----2-2-2-2-2-2-2-2-0-0-0-0-0-0-0-0-|-0-0-0-0-0-0-0-0-0-0-0-0-0-0-0-0----||
    ||----0-0-0-0-0-0-0-0-2-2-2-2-2-2-2-2-|------------------------------------||
    Open fire on the needs designed
    On my knees for you
    Open fire on my knees desires
    What I need from you
    
    [1:00] Bridge
    rhythm guitar
      D#5     C       G                    D#5     C       G                 x2
    |--------------------------------||--------------------------------------||
    |--------------------------------||--------------------------------------||
    |-8-8-8-8-5-5-5-5----------------||-o--8-8-8-8-5-5-5-5-----------------o-||
    |-8-8-8-8-5-5-5-5----------------||-o--8-8-8-8-5-5-5-5-----------------o-||
    |-6-6-6-6-3-3-3-3-5-5-3-5--5-3-5-||----6-6-6-6-3-3-3-3-5-5-3-5--5-3-5----||
    |-----------------3-3-3-3--3-3-3-||--------------------3-3-3-3--3-3-3----||
    
    lead guitar                                                              x2
    |--------------------------------||--------------------------------------||
    |--------------------------------||--------------------------------------||
    |-----------------5--------------||-o----------------------------------o-||
    |-----------------------5--------||-o------3/5-6-5---------------------o-||
    |--------------------------------||----1-1----------3-3/5----------------||
    |--------------------------------||--------------------------------------||
                          (play the natural harmonics)
    
    [1:12] Verse - keyboard arranged for guitar:
    ||-------------|| x8
    ||----6b8-8----||
    ||-o---------o-||
    ||-o---------o-||
    ||-------------||
    ||-------------||
    Imagine a pageant
    In my head the flesh seems thicker
    
    [1:24] Prechorus
      D#5     D#5-   G5
    |-------------------------------||-------------------------|| x2
    |-------------------------------||-------------------------||
    |-8-8-8-8-8-8--8----------------||-o---------------------o-||
    |-8-8-8-8-7-7--8----------------||-o------3/5-6-5--------o-||
    |-6-6-6-6-6-6--6-5-5-3-5--5-3-5-||----1-1---------3-3/5----||
    |----------------3-3-3-3--3-3-3-||-------------------------||
    Sandpaper tears corrode the filth
    And I need you now somehow (x2)
    
    [1:42] Chorus
      A#5             F5
    |---------------------------------|
    |---------------------------------|
    |-3-3-3-3-3-3-3-3-----------------|
    |-3-3-3-3-3-3-3-3-3-3-3-3-3-3-3-3-|
    |-1-1-1-1-1-1-1-1-3-3-3-3-3-3-3-3-|
    |-----------------1-1-1-1-1-1-1-1-|
    
          E               Asus2/F#          A                 Am   C5add9 G5       x2
    ||--------0-------0-------0-------0---|-----0-------0-------0------------------||
    ||--------0-------0-------0-------0---|-----2-------2-------1--3-3-3--3-3-3----||
    ||-o------1-------1-------2-------2---|-----2-------2-------2--0-0-0--0-0-0--o-||
    ||-o------2-------2-------2-------2---|-2-2-2-2-2-2-2-2-2-2-2- x-x-x--0-0-0--o-||
    ||----2-2-2-2-2-2-2-2-0-0-0-0-0-0-0-0-|-0-0-0-0-0-0-0-0-0-0-0--3-3-3--x-x-x----||
    ||----0-0-0-0-0-0-0-0-2-2-2-2-2-2-2-2-|-------------------------------3-3-3----||
    Open fire on the needs designed
    On my knees for you
    Open fire on my knees desires
    What I need from you
    
    [2:12] Break
      C5/G    D5/A    E5  E5-  C5/G    D5/A    E5 A#5-
    |------------------------|------------------------|
    |------------------------|------------------------|
    |-5-5-5-5-7-7-7-7-9-9--9-|-5-5-5-5-7-7-7-7------3-|
    |-5-5-5-5-7-7-7-7-9-9--8-|-5-5-5-5-7-7-7-7-2-2--2-|
    |-3-3-3-3-5-5-5-5-7-7--7-|-3-3-3-3-5-5-5-5-2-2--1-|
    |-3-3-3-3-5-5-5-5--------|-----------------0-0----|
    
      C5/G    F5      E5 A#5-   A#5      F5      E5
    |-------------------------|------------------------0--|
    |-------------------------|----------------------0----|
    |-5-5-5-5--------------3--|-----3---------------------|
    |-5-5-5-5-3-3-3-3-2-2--2--|---3---3-----3-------------|
    |-3-3-3-3-3-3-3-3-2-2--1--|-1---------3---3----2------|
    |-3-3-3-3-1-1-1-1-0-0-----|---------1--------0--------|
                                |-> distortion off
    And you're my obsession
    I love you to the bones
    And Ana wrecks your life
    Like an Anorexia life
    
    [2:36] Prechorus (guitars out)
    Open fire on the needs designed
    On my knees for you
    
    [2:44] Chorus - end
      C5add9 G5      E               Asus2/F#          A                 Am
    |--------------|-----0-------0-------0-------0---|-----0-------0-------0-|
    |-3-3-3--3-3-3-|-----0-------0-------0-------0---|-----2-------2-------1-|
    |-0-0-0--0-0-0-|-----1-------1-------2-------2---|-----2-------2-------2-|
    |-x-x-x--0-0-0-|-----2-------2-------2-------2---|-2-2-2-2-2-2-2-2-2-2-2-|
    |-3-3-3--x-x-x-|-2-2-2-2-2-2-2-2-0-0-0-0-0-0-0-0-|-0-0-0-0-0-0-0-0-0-0-0-|
    |--------3-3-3-|-0-0-0-0-0-0-0-0-2-2-2-2-2-2-2-2-|-----------------------|
    Open fire on my knees desires
    What I need from you
    
      C5add9 G5      E               Asus2/F#          A                 Am
    |--------------|-----0-------0-------0-------0---|-----0-------0-------0-|
    |-3-3-3--3-3-3-|-----0-------0-------0-------0---|-----2-------2-------1-|
    |-0-0-0--0-0-0-|-----1-------1-------2-------2---|-----2-------2-------2-| (break)
    |-x-x-x--0-0-0-|-----2-------2-------2-------2---|-2-2-2-2-2-2-2-2-2-2-2-|
    |-3-3-3--x-x-x-|-2-2-2-2-2-2-2-2-0-0-0-0-0-0-0-0-|-0-0-0-0-0-0-0-0-0-0-0-|
    |--------3-3-3-|-0-0-0-0-0-0-0-0-2-2-2-2-2-2-2-2-|-----------------------|
    Open fire on the needs designed
    
      C5add9 G5      E               Asus2/F#          A
    |--------------|-----0-------0-------0-------0---|-0-|
    |-3-3-3--3-3-3-|-----0-------0-------0-------0---|-2-|
    |-0-0-0--0-0-0-|-----1-------1-------2-------2---|-2-| (let ring)
    |-x-x-x--0-0-0-|-----2-------2-------2-------2---|-2-|
    |-3-3-3--x-x-x-|-2-2-2-2-2-2-2-2-0-0-0-0-0-0-0-0-|-0-|
    |--------3-3-3-|-0-0-0-0-0-0-0-0-2-2-2-2-2-2-2-2-|---|
    Open fire on my knees desires
    On my knees for you
    
    [Top]
  • Ana's Song (Open Fire) (acoustic)

    Standard tuning.

    [0:00] Verse
           D#sus2  Cm      Gm
    e||----6-6-6-6-3-3-3-3-3-3-3-3---3-3-3----|| x4
    B||----6-6-6-6-4-4-4-4-3-3-3-3---3-3-3----||
    G||-o--8-8-8-8-5-5-5-5-3-3-3-3---3-3-3--o-||
    D||-o--8-8-8-8-5-5-5-5-5-5-3-5---5-3-5--o-||
    A||----6-6-6-6-3-3-3-3-5-5-3-5---5-3-5----||
    E||--------------------3-3-3-3---3-3-3----||
    Please die Ana
    For as long as you're here we're not
    You make the sound of laughter
    And sharpened nails seem softer
    
    [0:25] Prechorus
          D#      Cm      Gm
    ||----6-6-6-6-3-3-3-3-3-3-3-3---3-3-3----|| x4
    ||----8-8-8-8-4-4-4-4-3-3-3-3---3-3-3----||
    ||-o--8-8-8-8-5-5-5-5-3-3-3-3---3-3-3--o-||
    ||-o--8-8-8-8-5-5-5-5-5-5-3-5---5-3-5--o-||
    ||----6-6-6-6-3-3-3-3-5-5-3-5---5-3-5----||
    ||--------------------3-3-3-3---3-3-3----||
    And I need you now somehow (x2)
    
    [0:35] Chorus
      A#      F
    |-----------------|
    |-3-3-3-3-1-1-1-1-|
    |-3-3-3-3-2-2-2-2-|
    |-3-3-3-3-3-3-3-3-|
    |-1-1-1-1-3-3-3-3-|
    |---------1-1-1-1-|
    
          E               Asus2/F#          A
    ||--------0-------0-------0-------0---|-----0-------0-------0-------0------||
    ||--------0-------0-------0-------0---|-----2-------2-------2-------2------||
    ||-o------1-------1-------2-------2---|-----2-------2-------2-------2----o-||
    ||-o------2-------2-------2-------2---|-2-2-2-2-2-2-2-2-2-2-2-2-2-2-2-2--o-||
    ||----2-2-2-2-2-2-2-2-0-0-0-0-0-0-0-0-|-0-0-0-0-0-0-0-0-0-0-0-0-0-0-0-0----||
    ||----0-0-0-0-0-0-0-0-2-2-2-2-2-2-2-2-|------------------------------------||
    Open fire on the needs designed
    On my knees for you
    Open fire on my knees desires
    What I need from you
    
    [1:01] Bridge
          D#sus2  Cm      Gm
    ||----6-6-6-6-3-3-3-3-3-3-3-3---3-3-3----|| x2
    ||----6-6-6-6-4-4-4-4-3-3-3-3---3-3-3----||
    ||-o--8-8-8-8-5-5-5-5-3-3-3-3---3-3-3--o-||
    ||-o--8-8-8-8-5-5-5-5-5-5-3-5---5-3-5--o-||
    ||----6-6-6-6-3-3-3-3-5-5-3-5---5-3-5----||
    ||--------------------3-3-3-3---3-3-3----||
    
    [1:14] Verse
          D#sus2  Cm      Gm
    ||----6-6-6-6-3-3-3-3-3-3-3-3---3-3-3----|| x2
    ||----6-6-6-6-4-4-4-4-3-3-3-3---3-3-3----||
    ||-o--8-8-8-8-5-5-5-5-3-3-3-3---3-3-3--o-||
    ||-o--8-8-8-8-5-5-5-5-5-5-3-5---5-3-5--o-||
    ||----6-6-6-6-3-3-3-3-5-5-3-5---5-3-5----||
    ||--------------------3-3-3-3---3-3-3----||
    Imagine a pageant
    In my head the flesh seems thicker
    
    [1:26] Prechorus
      D#5     D#5- D5 G
    |--------------------------------|
    |--------------------------------|
    |-8-8-8-x-8-8---8----------------|
    |-8-8-8-x-7-7---8----------------|
    |-6-6-6-x-6-6---6-5-5-3-5--5-3-5-|
    |-----------------3-3-3-3--3-3-3-|
    Sandpaper tears corrode the filth
    
          D#sus2  Cm      Gm
    ||----6-6-6-6-3-3-3-3-3-3-3-3---3-3-3----|| x2
    ||----6-6-6-6-4-4-4-4-3-3-3-3---3-3-3----||
    ||-o--8-8-8-8-5-5-5-5-3-3-3-3---3-3-3--o-||
    ||-o--8-8-8-8-5-5-5-5-5-5-3-5---5-3-5--o-||
    ||----6-6-6-6-3-3-3-3-5-5-3-5---5-3-5----||
    ||--------------------3-3-3-3---3-3-3----||
    And I need you now somehow(x2)
    
    [1:44] Chorus
      A#              F
    |---------------------------------|
    |-3-3-3-3-3-3-3-3-1-1-1-1-1-1-1-1-|
    |-3-3-3-3-3-3-3-3-2-2-2-2-2-2-2-2-|
    |-3-3-3-3-3-3-3-3-3-3-3-3-3-3-3-3-|
    |-1-1-1-1-1-1-1-1-3-3-3-3-3-3-3-3-|
    |-----------------1-1-1-1-1-1-1-1-|
    
          E               Asus2/F#          A                 Am   Cadd9  G        x2
    ||--------0-------0-------0-------0---|-----0-------0-------0--3-3-3--3-3-3----||
    ||--------0-------0-------0-------0---|-----2-------2-------1--3-3-3--3-3-3----||
    ||-o------1-------1-------2-------2---|-----2-------2-------2--0-0-0--0-0-0--o-||
    ||-o------2-------2-------2-------2---|-2-2-2-2-2-2-2-2-2-2-2- 2-2-2--0-0-0--o-||
    ||----2-2-2-2-2-2-2-2-0-0-0-0-0-0-0-0-|-0-0-0-0-0-0-0-0-0-0-0--3-3-3--2-2-2----||
    ||----0-0-0-0-0-0-0-0-2-2-2-2-2-2-2-2-|-------------------------------3-3-3----||
    Open fire on the needs designed
    On my knees for you
    Open fire on my knees desires
    What I need from you
    
    [2:15] Break
      C       D/A     E   E5-  C       D/A     E  A#5-
    |-0-0-0-0-2-2-2-2-0-0----|-0-0-0-0-2-2-2-2-0-0----|
    |-1-1-1-1-3-3-3-3-0-0----|-1-1-1-1-3-3-3-3-0-0----|
    |-0-0-0-0-2-2-2-2-1-1--9-|-0-0-0-0-2-2-2-2-1-1--3-|
    |-2-2-2-2-0-0-0-0-2-2--8-|-2-2-2-2-0-0-0-0-2-2--2-|
    |-3-3-3-3-0-0-0-0-2-2--7-|-3-3-3-3-0-0-0-0-2-2--1-|
    |-----------------0-0----|-----------------0-0----|
    
      C       F       E  A#5-   A#5      F5      E5
    |-0-0-0-0-1-1-1-1-0-0-----|------------------------0--|
    |-1-1-1-1-1-1-1-1-0-0-----|----------------------0----|
    |-0-0-0-0-2-2-2-2-1-1--3--|-----3---------------------|
    |-2-2-2-2-3-3-3-3-2-2--2--|---3---3-----3-------------|
    |-3-3-3-3-3-3-3-3-2-2--1--|-1---------3---3----2------|
    |---------1-1-1-1-0-0-----|---------1--------0--------|
    And you're my obsession
    I love you to the bones
    And Ana wrecks your life
    Like an Anorexia life
    
    [2:39] Prechorus (guitar out)
    Open fire on the needs designed
    On my knees for you
    
    [2:49] Chorus - end
      Cadd9  G       E               Asus2/F#          A                 Am
    |-3-3-3--3-3-3-|-----0-------0-------0-------0---|-----0-------0-------0-|
    |-3-3-3--3-3-3-|-----0-------0-------0-------0---|-----2-------2-------1-|
    |-0-0-0--0-0-0-|-----1-------1-------2-------2---|-----2-------2-------2-|
    |-2-2-2--0-0-0-|-----2-------2-------2-------2---|-2-2-2-2-2-2-2-2-2-2-2-|
    |-3-3-3--2-2-2-|-2-2-2-2-2-2-2-2-0-0-0-0-0-0-0-0-|-0-0-0-0-0-0-0-0-0-0-0-|
    |--------3-3-3-|-0-0-0-0-0-0-0-0-2-2-2-2-2-2-2-2-|-----------------------|
    Open fire on my knees desires
    What I need from you
    
      Cadd9  G       E               Asus2/F#          A                 Am
    |-3-3-3--3-3-3-|-----0-------0-------0-------0---|-----0-------0-------0-|
    |-3-3-3--3-3-3-|-----0-------0-------0-------0---|-----2-------2-------1-|
    |-0-0-0--0-0-0-|-----1-------1-------2-------2---|-----2-------2-------2-| (break)
    |-2-2-2--0-0-0-|-----2-------2-------2-------2---|-2-2-2-2-2-2-2-2-2-2-2-|
    |-3-3-3--2-2-2-|-2-2-2-2-2-2-2-2-0-0-0-0-0-0-0-0-|-0-0-0-0-0-0-0-0-0-0-0-|
    |--------3-3-3-|-0-0-0-0-0-0-0-0-2-2-2-2-2-2-2-2-|-----------------------|
    Open fire on the needs designed
    
      Cadd9  G       E               Asus2/F#          A
    |-3-3-3--3-3-3-|-----0-------0-------0-------0---|-0-|
    |-3-3-3--3-3-3-|-----0-------0-------0-------0---|-2-|
    |-0-0-0--0-0-0-|-----1-------1-------2-------2---|-2-| (let ring)
    |-2-2-2--0-0-0-|-----2-------2-------2-------2---|-2-|
    |-3-3-3--2-2-2-|-2-2-2-2-2-2-2-2-0-0-0-0-0-0-0-0-|-0-|
    |--------3-3-3-|-0-0-0-0-0-0-0-0-2-2-2-2-2-2-2-2-|---|
    Open fire on my knees desires 
    On my knees for you
    
    [Top]
    4. Spawn Again

    Dropped D tuning one half step down (from low to high:Db-Ab-Db-Gb-Bb-Eb), written chords are relative to a "normal" Dropped-D

    [0:03]                                           x3
    eb|---||-----------------------------------------||
    Bb|---||-----------------------------------------||
    Gb|---||-o-------------------------------------o-||
    Db|---||-o-------------------------------------o-||
    Ab|---||----6-5--5b6r5-----5b6r5---5b6r5---------||
    Db|-0-||---------------0-0-------0-------0-6-0---||
    
    |---------------------------------|
    |---------------------------------|
    |---------------------------------|
    |-------------0-0-4-0-0-5-0-0-6-0-|
    |-6-5--5b6r5--0-0-4-0-0-5-0-0-6-0-|
    |-------------0-0-4-0-0-5-0-0-6-0-|
    
    [0:18]
          D5         F#5   G5    G#5   D5 D5-     F#5   G5    G#5
    ||-------------------------------|-------------------------------|| x2
    ||-------------------------------|-------------------------------||
    ||-o-----------------------------|-----------------------------o-||
    ||-o----7-7--0-0-4-0-0-5-0-0-6-0-|---7-6--0-0-4-0-0-5-0-0-6-0--o-||
    ||------5-5--0-0-4-0-0-5-0-0-6-0-|---5-5--0-0-4-0-0-5-0-0-6-0----||
    ||----0------0-0-4-0-0-5-0-0-6-0-|-0------0-0-4-0-0-5-0-0-6-0----||
    
    [0:32] Guitars out
    Death becomes clearer through bloodshot eyes
    As a death from old age becomes nearer
    Why can't the livestock be free
    When trading soldiers for steak
    
    [0:40]
      D5         F#5   G5    G#5   D5 D5-     F#5   G5    G#5
    |----------------------------|----------------------------|
    |----------------------------|----------------------------|
    |----------------------------|----------------------------|
    |---7-7--0-0-4-0-0-5-0-0-6-0-|---7-6--0-0-4-0-0-5-0-0-6-0-|
    |---5-5--0-0-4-0-0-5-0-0-6-0-|---5-5--0-0-4-0-0-5-0-0-6-0-|
    |-0------0-0-4-0-0-5-0-0-6-0-|-0------0-0-4-0-0-5-0-0-6-0-|
    Learn to evolve with the new transition
    To act upon a hypocritical vision
    
    (then guitars out for 2 bars)
    Discard the old and in with the new
    Discard the old and in with the fashion
    
          D5         F#5   G5    G#5   D5 D5-     F#5   G5    G#5
    ||-------------------------------|-------------------------------|| x2
    ||-------------------------------|-------------------------------||
    ||-o-----------------------------|-----------------------------o-||
    ||-o----7-7--0-0-4-0-0-5-0-0-6-0-|---7-6--0-0-4-0-0-5-0-0-6-0--o-||
    ||------5-5--0-0-4-0-0-5-0-0-6-0-|---5-5--0-0-4-0-0-5-0-0-6-0----||
    ||----0------0-0-4-0-0-5-0-0-6-0-|-0------0-0-4-0-0-5-0-0-6-0----||
    Learn to evolve with the new transition
    To act upon a hypocritical vision
    Learn to evolve, learn to, learn to evolve
    
    [1:17]
    |---------------------------------------------------|
    |--s14-14-14-14-14-14-14-14-13-13-13-13-15-15-15-15-|
    |---------------------------------------------------|
    |---------------------------------------------------|
    |---------------------------------------------------|
    |---------------------------------------------------|
    
                               x12
    ||----------------------------||---|
    ||----------------------------||---|
    ||-o------------------------o-||---|
    ||-o--0-11-11-0-11-11-0-11--o-||-0-|
    ||----0-11-11-0-11-11-0-11----||-0-|
    ||----0-11-11-0-11-11-0-11----||-0-|
    Who's the bad guy for iron require mince
    These are the facts
    So eat what you murder
    This is animal liberation
    Eight billion killed for human pleasure
    
    [1:49]
      one guitar                        x2        two guitars           x2
    |---||------------------------------||------------------------------||
    |---||------------------------------||------------------------------||
    |---||-o--------------------------o-||-o--------------------------o-||
    |---||-o--------------------------o-||-o--------------------------o-||
    |---||------------------------------||------------------------------||
    |-3-||----0--0-0-4h6--0-1--0-3-0----||----0--0-0-4h6--0-1--0-3-0----||
    
    [1:58]
         two guitars + vocals   x8
    ||--------------------------||
    ||--------------------------||
    ||-o----------------------o-||
    ||-o----------------------o-||
    ||--------------------------||
    ||----0--4h6--0-1--0-3-0----||
    Bring on the ape farm
    Demolish the monkeys
    Drink up, drink up
    Look down on junkies
    A new hypocritical look and ambition
    The time has come to make the decision you...
    
    [2:14]
    Guitars 1&2                x16
    ||--------------------------||
    ||--------------------------||
    ||-o----------------------o-||
    ||-o--0--4-6--0-1--0-3-0--o-||
    ||----0--4-6--0-1--0-3-0----||
    ||----0--4-6--0-1--0-3-0----|| (play with soft palm mutting)
    
    Guitar 3 plays this chords in tremolo picking with slides between:
           D                                   D#          C                                      D#          D    x4
    ||----------------------------|-------------------------|-------------------------|----------------------------||
    ||----------------------------|-------------------------|-------------------------|----------------------------||
    ||----7-7-7-7-7-7-7-7-7-7-7-7-|-7-7-7-7-7/8-8-8-8-8-8\5-|-5-5-5-5-5-5-5-5-5-5-5-5-|-5-5-5-5-5/8-8-8-8-8-8\7--o-||
    ||-o--x-x-x-x-x-x-x-x-x-x-x-x-|-x-x-x-x-x-x-x-x-x-x-x-x-|-x-x-x-x-x-x-x-x-x-x-x-x-|-x-x-x-x-x-x-x-x-x-x-x-x--o-||
    ||----5-5-5-5-5-5-5-5-5-5-5-5-|-5-5-5-5-5/6-6-6-6-6-6\3-|-3-3-3-3-3-3-3-3-3-3-3-3-|-3-3-3-3-3/6-6-6-6-6-6\5----||
    ||----------------------------|-------------------------|-------------------------|----------------------------||
    Drink up, drink up, look down
    I'll hold it back, I'll hold it back
    Oh
    
      D                                    F          G
    |-------------------------|-----------------------------------|
    |-------------------------|-----------------------------------|
    |-7-7-7-7-7-7-7-7-7-7-7-7-|-7-7-7-7-7/10-10-10-10-10-10-10/12-|
    |-x-x-x-x-x-x-x-x-x-x-x-x-|-x-x-x-x-x--x--x--x--x--x--x--x--x-|
    |-5-5-5-5-5-5-5-5-5-5-5-5-|-5-5-5-5-5/-8--8--8--8--8--8--8/10-|
    |-------------------------|-----------------------------------|
    Discard the old
    
      G                                E                    D5 F5  D5   F#5G#5D5D#5
    |------------------------------------|-----------------------|----------------|
    |------------------------------------|-----------------------|----------------|
    |-12-12-12-12-12-12-12-12-12-12-12\9-|-9-9-9-9-9-9-9-9-9-----|----------------|
    |--x--x--x--x--x--x--x--x--x--x--x-x-|-x-x-x-x-x-x-x-x-x-0-3-|-0--0-0-4h6-0-1-|
    |-10-10-10-10-10-10-10-10-10-10-10\7-|-7-7-7-7-7-7-7-7-7-0-3-|-0--0-0-4h6-0-1-|
    |------------------------------------|-------------------0-3-|-0--0-0-4h6-0-1-|
                                                                           (palm mutting)
    In with the fashion
    
    [2:53] End
                       D5   F#5   G5    G#5
    ||-----------------------------------------|| x4
    ||-----------------------------------------||
    ||-o-------------------------------------o-||
    ||-o---------------0--0-4-0-0-5-0-0-6-0--o-||
    ||------6-5--5b6r5-0--0-4-0-0-5-0-0-6-0----||
    ||----0------------0--0-4-0-0-5-0-0-6-0----||
    
          D5         F#5   G5    G#5   D5 D5-     F#5   G5    G#5
    ||-------------------------------|-------------------------------|| x2
    ||-------------------------------|-------------------------------||
    ||-o-----------------------------|-----------------------------o-||
    ||-o----7-7--0-0-4-0-0-5-0-0-6-0-|---7-6--0-0-4-0-0-5-0-0-6-0--o-||
    ||------5-5--0-0-4-0-0-5-0-0-6-0-|---5-5--0-0-4-0-0-5-0-0-6-0----||
    ||----0------0-0-4-0-0-5-0-0-6-0-|-0------0-0-4-0-0-5-0-0-6-0----||
    Death becomes clearer through bloodshot eyes
    Death becomes clearer through bloodshot eyes...
    
    [Top]
    5. Miss You Love

    Standard tuning.

    [0:00]
    clean tone
           Cadd9       G5           D5
    e||--------------------------------------------------------|| x2
    B||-------3-----3-----3-----3------3-3---3-3---3-3---3-3---||
    G||-o------0-----0---0-0---0-0----2-2---2-2---2-2---2-2--o-||
    D||-o----2--2--2--2-----0-----0-0-----0-----0-----0------o-||
    A||----3-----3---------------------------------------------||
    E||----------------3-----3---------------------------------||
    Millionaire say
    Got a big shot deal
    And thrown it all away but
    But I'm not too sure
    How I'm supposed to feel
    Or what I'm supposed to say but...
    
          Cadd9 G5        x2 Am                     Em
    ||--------------------||--------------------------------------------------|
    ||-------3-----3------||----1-----1-----1-----1-----0-----0-----0-----0---|
    ||-o------0-----0---o-||---2-2---2-2---2-2---2-2---0-0---0-0---0-0---0-0--|
    ||-o----2--2--0--0--o-||------2-----2-----2-----2-----2-----2-----2-----2-|
    ||----3---------------||-0-----0-----0-----0------------------------------|
    ||----------3---------||-------------------------0-----0-----0-----0------|
    I'm not, not sure,
    Not too sure how it feels
    To handle every day
    
       C    G5      D
    |---------------2--|
    |-----1-----3---3--|
    |----0-0---0-0--2--|
    |-------2-----0-0--|
    |--3---------------|
    |--------3---------|
    And I miss you love
    
    [0:42]
          Cadd9       G5           D5
    ||--------------------------------------------------------|| x2
    ||-------3-----3-----3-----3------3-3---3-3---3-3---3-3---||
    ||-o------0-----0---0-0---0-0----2-2---2-2---2-2---2-2--o-||
    ||-o----2--2--2--2-----0-----0-0-----0-----0-----0------o-||
    ||----3-----3---------------------------------------------||
    ||----------------3-----3---------------------------------||
    Make room for the prey
    'Cause I'm coming in
    With what I wanna say but
    It's gonna hurt
    And I love the pain
    A breeding ground for hate but... 
    
          Cadd9 G5        x2 Am                     Em
    ||--------------------||--------------------------------------------------|
    ||-------3-----3------||----1-----1-----1-----1-----0-----0-----0-----0---|
    ||-o------0-----0---o-||---2-2---2-2---2-2---2-2---0-0---0-0---0-0---0-0--|
    ||-o----2--2--0--0--o-||------2-----2-----2-----2-----2-----2-----2-----2-|
    ||----3---------------||-0-----0-----0-----0------------------------------|
    ||----------3---------||-------------------------0-----0-----0-----0------|
    I'm not, not sure,
    Not too sure how it feels
    To handle every day
    
      Am                       D           Dm   G5
    |------------------------------2-----2-----1-------|
    |----1-----1-----1-----1------3-3---3-3---3----3---|
    |---2-2---2-2---2-2---2-2----2-----2-----2----0-0--|
    |------2-----2-----2-----2-0-----0-----0---------0-|
    |-0-----0-----0-----0------------------------------|
    |-------------------------------------------3------|
    Like the one that just past
    In the crowds of all the people
    
    [1:27]
       F#m11 E  F# E   D  A  E   D  A  E    x2
    ||----0--0--0--0-|-2--0--0-|-2--0--0----||
    ||----0--0--0--0-|-3--2--0-|-3--2--0----||
    ||-o--2--1--2--1-|-2--2--1-|-2--2--1--o-|| (for the F#m11, use your thumb
    ||-o--4--2--4--2-|-0--2--2-|-0--2--2--o-||   for the lowest string)
    ||----4--2--4--2-|----0--2-|----0--2----||
    ||----2--0--2--0-|-------0-|-------0----||
    Remember today
    I've no respect for you
    And I miss you love
    And I miss you love 
    
    [1:49] distortion on
          C     Cadd9 C5       G         Gadd9 G5
    ||---------------------------------------------------|
    ||---------------------------------------------------|
    ||-o-------------------------------------------------|
    ||-o--2--2-2-2-3-3h5-5-5-3-2-------------------------|
    ||----3--3-3-3-3-3---3-3-3-3--2--2-2-2-3-3h5-5-5-3-2-|
    ||----------------------------3--3-3-3-3-3---3-3-3-3-|
    
      D       Dadd9 D5        D       Dadd9  D5         x2
    |---------------------------------------------------||
    |---------------------------------------------------||
    |-------------------------------------------------o-||
    |-/4--4-4-4-5-5h7-7-7-5-4-4--4-4-4-5-5h7-7-7-5-4--o-||
    |-/5--5-5-5-5-5---5-5-5-5-5--5-5-5-5-5---5-5-5-5----||
    |----------------------------------------------------||
    
    [2:09] distortion off
      Cadd9       G5           D5
    |---------------------------------------------------|
    |----3-----3-----3-----3------3-3---3-3---3-3---3-2-|
    |-----0-----0---0-0---0-0----2-2---2-2---2-2---2-2--|
    |---2--2--2--2-----0-----0-0-----0-----0-----0------|
    |-3-----3-------------------------------------------|
    |-------------3-----3-------------------------------|
    I love the way you love
    But I hate the way
    I'm supposed to love you back
    
    distortion on
      C5 C5/E    C5/G       G5         G            D5/A                  D/A        D5/A
    |---------------------------------------------|---------------------------------------------|
    |---------------------------------------------|---------------------------------------------|
    |-5-------------------------------------------|---------------------------------------------|
    |-5----------2--2-2---------------------------|-7--7-7-----7--7-7-----4--4-4-----7--7-7-----|
    |-3--3-3-x-x-3--3-3-x-x-5--5-5-x-x-2--2-2-x-x-|-5--5-5-x-x-5--5-5-x-x-5--5-5-x-x-5--5-5-x-x-|
    |----0-0-x-x-3--3-3-x-x-3--3-3-x-x-3--3-3-x-x-|-5--5-5-x-x-5--5-5-x-x-5--5-5-x-x-5--5-5-x-x-|
    It's just a fad
    Part of the teenage angst brigade and
    
    [2:30] distortion off
          Cadd9 G5        x2 Am                     Em
    ||--------------------||--------------------------------------------------|
    ||-------3-----3------||----1-----1-----1-----1-----0-----0-----0-----0---|
    ||-o------0-----0---o-||---2-2---2-2---2-2---2-2---0-0---0-0---0-0---0-0--|
    ||-o----2--2--0--0--o-||------2-----2-----2-----2-----2-----2-----2-----2-|
    ||----3---------------||-0-----0-----0-----0------------------------------|
    ||----------3---------||-------------------------0-----0-----0-----0------|
    I'm not, not sure,
    Not too sure how it feels
    To handle everyday
    
      Am                       D           Dm   G5
    |------------------------------2-----2-----1-------|
    |----1-----1-----1-----1------3-3---3-3---3----3---|
    |---2-2---2-2---2-2---2-2----2-----2-----2----0-0--|
    |------2-----2-----2-----2-0-----0-----0---------0-|
    |-0-----0-----0-----0------------------------------|
    |-------------------------------------------3------|
    Like the one that just past
    In the crowds of all the people
    
    [2:54]
       F#m11 E  F# E   D  A  E   D  A  E    x2
    ||----0--0--0--0-|-2--0--0-|-2--0--0----||
    ||----0--0--0--0-|-3--2--0-|-3--2--0----||
    ||-o--2--1--2--1-|-2--2--1-|-2--2--1--o-|| (for the F#m11, use your thumb
    ||-o--4--2--4--2-|-0--2--2-|-0--2--2--o-||   for the lowest string)
    ||----4--2--4--2-|----0--2-|----0--2----||
    ||----2--0--2--0-|-------0-|-------0----||
    Remember today
    I've no respect for you
    And I miss you love
    And I miss use love 
    Remember two days
    I've no respect for you
    And I miss you love
    And I miss use love
    
    [3:37]
      Cadd9       G5           D5
    |---------------------------------------------------|
    |----3-----3-----3-----3------3-3---3-3---3-3---3-2-|
    |-----0-----0---0-0---0-0----2-2---2-2---2-2---2-2--|
    |---2--2--2--2-----0-----0-0-----0-----0-----0------|
    |-3-----3-------------------------------------------|
    |-------------3-----3-------------------------------|
    I love the way you love
    But I hate the way
    I'm supposed to love you back
    
      Cadd9       G5           D
    |--------------------------2-|
    |----3-----3-----3-----3---3-|
    |-----0-----0---0-0---0-0--2-|
    |---2--2--2--2-----0-----0-0-|
    |-3-----3--------------------|
    |-------------3-----3--------|
    
    [Top]
    6. Dearest Helpless

    Standard tuning.

    [0:05]
    distortion on
    e|----------------------------|--------------------------------|
    B|----------------------------|--------------------------------|
    G|-----3----------------------|-----3--------------------------|
    D|-------2--4-5----5----7-7---|-------2--4-5----5------5b6r5---|
    A|-1-1------4-5-/4---4--5-5-0-|-1-1------4-5-/4---4--4---------|
    E|----------2-3---------5-5---|----------2-3-----------------5-|
       ***                          ***                              *:P.M.
    
    |----------------------------|--------------|
    |----------------------------|--------------|
    |-----3----------------------|-----3--------|
    |-------2--4-5----5----7-7---|-------2------|
    |-1-1------4-5-/4---4--5-5-0-|-1-1------4-4-|
    |----------2-3---------5-5---|----------2-3-|
      ***                          ***
    
    [0:25] Verse
    distortion off
          A#5     B5-   G5      C5          A#5       A#5     A#5-   x2
    ||---------------------------------------------------------------||
    ||---------------------------------------------------------------||
    ||-o-----------------------------------------------------------o-||
    ||-o-----------------------------------------------------------o-||
    ||----8-8-8-8-8-8-8-5-5-5-5-10-10-10-10-8-8-8-8---8-8-8-8-7-7----||
    ||----6-6-6-6-7-7-7-3-3-3-3--8--8--8--8-6-6-6-6---6-6-6-6-6-6----||
    
          A#5     B5-   G5      C5          A#5       A#5  A#5-   x2
    ||------------------------------------------------------------||
    ||------------------------------------------------------------||
    ||-o--------------------------------------------------------o-||
    ||-o--------------------------------------------------------o-||
    ||----8-8-8-8-8-8-8-5-5-5-5-10-10-10-10-8-8-8-8---8-8--7-7----||
    ||----6-6-6-6-7-7-7-3-3-3-3--8--8--8--8-6-6-6-6---6-6--6-6----||
    Dearest helpless
    Intent's not as bad as the action
    Take a breath to distort
    The fear in your eyes
    I don't mean it to hurt
    But every time I hate you
    I think of you first
    
    [1:03]
    distortion on
    |----------------------------|--------------------------------|
    |----------------------------|--------------------------------|
    |-----3----------------------|-----3--------------------------|
    |-------2--4-5----5----7-7---|-------2--4-5----5------5b6r5---|
    |-1-1------4-5-/4---4--5-5-0-|-1-1------4-5-/4---4--4---------|
    |----------2-3---------5-5---|----------2-3-----------------5-|
      ***                          ***                              *:P.M.
    
    |----------------------------|--------------|
    |----------------------------|--------------|
    |-----3----------------------|-----3--------|
    |-------2--4-5----5----7-7---|-------2------|
    |-1-1------4-5-/4---4--5-5-0-|-1-1------4-4-|
    |----------2-3---------5-5---|----------2-3-|
      ***                          ***
    He's made you blind
    You're better on your own
    I'm just the kind to bring you down
    
    [1:25]
       A#5 F#5- F#5 A5/D x2
    ||-------------------||
    ||-------------------||
    ||-o------3--------o-||
    ||-o----3-------0--o-||
    ||----1-----3-4-0----||
    ||----------2-2------||
                *****       *:distortion on
    
    [1:26] Verse
    distortion off
          A#5     B5-   G5      C5          A#5       A#5     A#5-   x2
    ||---------------------------------------------------------------||
    ||---------------------------------------------------------------||
    ||-o-----------------------------------------------------------o-||
    ||-o-----------------------------------------------------------o-||
    ||----8-8-8-8-8-8-8-5-5-5-5-10-10-10-10-8-8-8-8---8-8-8-8-7-7----||
    ||----6-6-6-6-7-7-7-3-3-3-3--8--8--8--8-6-6-6-6---6-6-6-6-6-6----||
    
          A#5     B5-   G5      C5          A#5       A#5  A#5-   x2
    ||------------------------------------------------------------||
    ||------------------------------------------------------------||
    ||-o--------------------------------------------------------o-||
    ||-o--------------------------------------------------------o-||
    ||----8-8-8-8-8-8-8-5-5-5-5-10-10-10-10-8-8-8-8---8-8--7-7----||
    ||----6-6-6-6-7-7-7-3-3-3-3--8--8--8--8-6-6-6-6---6-6--6-6----||
    Equalize the pressure, it's all too much
    Sex drugs and image is just enough
    To get you by in the real world 
    
    [1:54]
    distortion on
    |----------------------------|--------------------------------|
    |----------------------------|--------------------------------|
    |-----3----------------------|-----3--------------------------|
    |-------2--4-5----5----7-7---|-------2--4-5----5------5b6r5---|
    |-1-1------4-5-/4---4--5-5-0-|-1-1------4-5-/4---4--4---------|
    |----------2-3---------5-5---|----------2-3-----------------5-|
      ***                          ***                              *:P.M.
    
    |----------------------------|--------------|
    |----------------------------|--------------|
    |-----3----------------------|-----3--------|
    |-------2--4-5----5----7-7---|-------2------|
    |-1-1------4-5-/4---4--5-5-0-|-1-1------4-4-|
    |----------2-3---------5-5---|----------2-3-|
      ***                          ***
    He's made you blind
    You're better on your own
    I'm just the kind to bring you down 
    
    [2:13]
    distortion off
          A#5   F#5- A#5  F#5F#5-A5A#5
    ||------------------------------||
    ||------------------------------||
    ||-o------3----------3--------o-||
    ||-o----3----------3-------0--o-||
    ||----1-----3-3--1-----3-4-0----||
    ||----------2-2--------2-2------||
                ***        *****
    
    [2:28]
    distortion off
         D#5   B5    D#5   B5    A#5   F#5   A#5   F#5      x3
    ||------------------------------------------------------||
    ||------------------------------------------------------||
    ||-o-----8-----------8-----------3-----------3--------o-||
    ||-o---8-------9---8-------9---3-------4---3-------4--o-||
    ||---6-------9---6-------9---1-------4---1-------4------||
    ||---------7-----------7-----------2-----------2--------||
    
      A#5   F#5  A#5   F#5 D#/G# D/A  A#5 F#5 G5       D#5/A
    |--------------------------------|-----------------------|
    |--------------------------------|-----------------------|
    |-----3------------3-------------|-3---------------------|
    |---3---4-4-4----3---------------|---2--4-5----5---7-7---|
    |-1-----4-4-4--1-----4--4--5\----|------4-5-/4---4-5-5-5-|
    |-------2-2-2--------2--4--5\----|------2-3--------5-5---|
            *****        *******            ***        ***
    
    [2:54]                                                             x3
    ||-----------------------------------|-------------------------------||
    ||-----------------------------------|-------------------------------||
    ||-o------3--------------------------|-----3-----------------------o-||
    ||-o--------2--4-5----5------5r6b5---|-------2--4-5----5----7-7----o-||
    ||----1-1------4-5-/4---4--4---------|-1-1------4-5-/4---4--5-5-0----||
    ||-------------2-3-----------------5-|----------2-3---------5-5------||
    
    |--------------|
    |--------------|
    |-----3--------|
    |---3---2------|
    |-1--------4-4-|
    |----------2-3-|
    He's made you blind
    I'm just the kind to bring you, to bring you...
    He's made you blind
    You're better on your own
    I'm just the kind to bring you down
    
    [Top]
    7. Do You Feel The Same

    Standard tuning.

    [0:00] Verse
           Am       G5 F         G5
    e||--------0-----------1----------|| x4
    B||--------1---1-0-----1-----0----||
    G||-o--2====---2-0-----2-----0--o-||
    D||-o--2====---2-0-3-------3-0--o-||
    A||----0====-------3-------3------||
    E||----------------1-------1------||
    Moon covered determined
    To find
    To find my place of hiding
    Try to detach
    Try to decrease 
    To make it easier (on me)
    Despise myself for what you've done
    Sent me back into my world
    Hold yourself
    Cause no-one will
    I'll make it easier
    
    [0:31] Prechorus
    electric guitar
      G           F    C                G           F    Am
    |-3--3--3-3---1-1--0--0-0--0--0-0-|-3--3--3-3---1-1--0-|
    |-3--3--3-3---1-1--1--1-1--1--1-1-|-3--3--3-3---1-1--1-|
    |-0--0--0-0---2-2--0--0-0--0--0-0-|-0--0--0-0---2-2--2-|
    |-0--0--0-0---3-3--2--2-2--2--2-2-|-0--0--0-0---3-3--2-|
    |-x--x--x-x---3-3--3--3-3--3--3-3-|-x--x--x-x---3-3--0-|
    |-3--3--3-3---1-1-----------------|-3--3--3-3---1-1----|
    acoustic guitar
    |-------0-------------------------|-------0----------0-|
    |---3-----3---1-1----1--------1---|---3-----3---1-1--1-|
    |-----0-----0-2-2--0---0--------0-|-----0-----0-2-2--2-|
    |-------------3-3--2-----0h2----2-|-------------3-3--2-|
    |-------------3-3--3--------------|-------------3-3--0-|
    |-3-------------------------------|-3------------------|
    Now I have managed to be the one
    To be the victim without the gun
    
    [0:46] Chorus
      A5  F5 F5 D5  A5  F5  G5
    |-------------|-----------|
    |-----------3-|-----------|
    |-2---------2-|-2---------|
    |-2---3---3-0-|-2---3---5-|
    |-0---3---3---|-0---3---5-|
    |-----1---1---|-----1---3-|
    Do you feel the same anyway
    Now you've come
    Do you feel the same anyway
    Now you've come
    
    [1:01] Verse
          Am       G5 F         G5
    ||--------0-----------1----------|| x4
    ||--------1---1-0-----1-----0----||
    ||-o--2====---2-0-----2-----0--o-||
    ||-o--2====---2-0-3-------3-0--o-||
    ||----0====-------3-------3------||
    ||----------------1-------1------||
    Hold yourself
    Cos no-one will
    I'll be there to take the spill
    Cleanse your soul
    Change the tide and ride the wave back to me
    Stay alert cause I'm obsessed
    Surely I can't be depressed
    Could I be read if I was see-through
    Or would you just read my spine
    
    [1:31] Prechorus
    electric guitar
      G           F    C                G           F    Am
    |-3--3--3-3---1-1--0--0-0--0--0-0-|-3--3--3-3---1-1--0-|
    |-3--3--3-3---1-1--1--1-1--1--1-1-|-3--3--3-3---1-1--1-|
    |-0--0--0-0---2-2--0--0-0--0--0-0-|-0--0--0-0---2-2--2-|
    |-0--0--0-0---3-3--2--2-2--2--2-2-|-0--0--0-0---3-3--2-|
    |-x--x--x-x---3-3--3--3-3--3--3-3-|-x--x--x-x---3-3--0-|
    |-3--3--3-3---1-1-----------------|-3--3--3-3---1-1----|
    acoustic guitar
    |-------0-------------------------|-------0----------0-|
    |---3-----3---1-1----1--------1---|---3-----3---1-1--1-|
    |-----0-----0-2-2--0---0--------0-|-----0-----0-2-2--2-|
    |-------------3-3--2-----0h2----2-|-------------3-3--2-|
    |-------------3-3--3--------------|-------------3-3--0-|
    |-3-------------------------------|-3------------------|
    Now I have managed to be the one
    To be the victim without the gun
    
    [1:47] Chorus
          A5  F  F5 D5   x3 A5
    ||-------------------||---|
    ||--------------2----||---|
    ||-o--2---------3--o-||-2-|
    ||-o--2---3---3-0--o-||-2-|
    ||----0---3---3------||-0-|
    ||--------1---1------||---|
    Do you feel the same anyway
    Now you've come
    Do you feel the same anyway
    Feel the same
    Now you've come
    Do you feel the same anyway
    
    [2:16] undoubtedly played on a Gibson with the rhythm mic volume to zero
    and by switching the mic switch from the central and treble positions,
    and playing the notes in tremolo.
    |--------------|--------------|
    |--------------|--------------|
    |--------------|--------------|
    |--------------|--------------|
    |-----3--------|-----3--------|
    |-5-------1----|-5-------1----|
    
    [2:32] Guitar solo (with delay and reverb)
    |-----------------------------------------------------------------------------------5----------|
    |-7b9r7------------------------------------------------------------------8---5-8b10---8--------|
    |-7b9r7^p5---5------5b---------------------------------------5b7-5-7-7b9---7------------5~-6-7-|
    |--------------7-7~------------------------------5---5-7-5-7-----------------------------------|
    |----------7-------------------3---3-5-3-5-7-5-7---7-------------------------------------------|
    |------------------------5-3-5---5-------------------------------------------------------------|
    
    |---------------------------------------------------------------------------------|
    |---------------------------------------------------------------------------------|
    |---------------------------------------------------------------------------------|
    |-/7------------------5-5---5h7~------7--------------7---------------7------------|
    |----6------------5h7-----7------8-8~---6-0--------7---6-----5~-7--7---6-----5~-7-|
    |------5-7b9r7-5\-------------------------5-8/10~--------5-8-------------5-8------|
    
    |---------------------------------------------------|
    |---------------------------------------------------|
    |--------------5-7b9r7-5~--4-5-4-5h4----------------|
    |--------5h7-7-----------------------5-5/7\5/7\5...-| (delay)
    |--5h7-7--------------------------------------------|
    |---------------------------------------------------|
    
    [3:01] Prechorus
    electric guitar
      G           F    C                G           F    Am
    |-3--3--3-3---1-1--0--0-0--0--0-0-|-3--3--3-3---1-1--0-|
    |-3--3--3-3---1-1--1--1-1--1--1-1-|-3--3--3-3---1-1--1-|
    |-0--0--0-0---2-2--0--0-0--0--0-0-|-0--0--0-0---2-2--2-|
    |-0--0--0-0---3-3--2--2-2--2--2-2-|-0--0--0-0---3-3--2-|
    |-x--x--x-x---3-3--3--3-3--3--3-3-|-x--x--x-x---3-3--0-|
    |-3--3--3-3---1-1-----------------|-3--3--3-3---1-1----|
    acoustic guitar
    |-------0-------------------------|-------0----------0-|
    |---3-----3---1-1----1--------1---|---3-----3---1-1--1-|
    |-----0-----0-2-2--0---0--------0-|-----0-----0-2-2--2-|
    |-------------3-3--2-----0h2----2-|-------------3-3--2-|
    |-------------3-3--3--------------|-------------3-3--0-|
    |-3-------------------------------|-3------------------|
    Be the one
    Without the gun
    
    [3:16] Chorus
          A5  F  F5 D5   x3 A5
    ||-------------------||---|
    ||--------------2----||---|
    ||-o--2---------3--o-||-2-|
    ||-o--2---3---3-0--o-||-2-|
    ||----0---3---3------||-0-|
    ||--------1---1------||---|
    Do you feel the same anyway
    Now you've come
    Do you feel the same anyway
    Now you've come
    Do you feel the same anyway
    Feel the same
    Now you've come
    Do you feel the same anyway
    Now you've come
    
    [3:46] End
      Am7                 F       F- F-sus2
    |------------3--------------------|---|
    |-----1-0--0-0--0-----1-1-----0---|-0-|
    |---2------2-2----2---2---2-----2-|-0-|
    |---2------2--------0-3-----3---3-|-3-|
    |-0-------------------3---------3-|-3-|
    |---------------------------------|-1-|
    
    [Top]
    8. Black Tangled Heart

    Standard tuning.

    [0:00] (2 guitars, one acoustic, one electric, arranged for one)
       Bbadd#4             Fadd9               Em
    e|----1-------0h1------------------------------0-----------------------------------------|
    B|-3----3---------3------1---0h1-----------------0----------0----------0-----------0-----|
    G|-3------3---------3\-2---------0h2-----0----2-----2-0h2-----0----------0-----------0---|
    D|-3--------3----------3-------------3--------------------2-----2----2-----2-0h2-------0-|
    A|-1-------------------3---3-----------3-----------------------------------------2-------|
    E|---------------------1-------------------0----------------------0----------------------|
    
      Bbadd#4              Fadd9               Em
    |----1-------0h1-------------------------------0----------------------------------------|
    |-3----3---------3-------1---0h1-----------------0----------0-----------0---------------|
    |-3------3---------3-0-2---------0h2-----0----2-----2-0h2-----2/4\2---------------------|
    |-3--------3-----------3-------------3--------------------2---------------2-0h2---2-2/4-|
    |-1--------------------3---3-----------3----------------------------------------2-------|
    |----------------------1-------------------0-------------------------0------------------|
    
    [0:21]
    ||--------------------------------------------------------0----------0----------0----------0--------|| x4
    ||----------1-----------1-----------1-----------1-----------0----------0----------0----------0------||
    ||-o----------0-----------0-----------0-----------0-----------0----------0----------0----------0--o-||
    ||-o------2-----2-----2-----2-----2-----2-----2---------2----------2----------2----------2--------o-||
    ||-----3-----------0-----------3-----------0--------------------------------------------------------||
    ||---------------------------------------------------0----------0----------0----------0-------------||
    Maybe your luck has changed settle down
    Maybe I'm just deraged and on the rebound
    Maybe love was the thing holding me back from all
    Maybe I'm just the thing to break my own fall
    
    [1:03]
          Bb F  Em  (chords implied by melody)
    ||----1--1--0----|| x4
    ||----3--1--0----||
    ||-o--3--2--0--o-||
    ||-o--3--3--2--o-||
    ||----1--3--2----||
    ||-------1--0----||
    Take the rope to my heart and fall
    You may just be the last before you see
    The black tangled heart fall
    
    [1:34]
    ||--------------------------------------------------------0----------0----------0----------0--------|| x4
    ||----------1-----------1-----------1-----------1-----------0----------0----------0----------0------||
    ||-o----------0-----------0-----------0-----------0-----------0----------0----------0----------0--o-||
    ||-o------2-----2-----2-----2-----2-----2-----2---------2----------2----------2----------2--------o-||
    ||-----3-----------0-----------3-----------0--------------------------------------------------------||
    ||---------------------------------------------------0----------0----------0----------0-------------||
    Maybe departure's good
    Makes room for more start
    To mass produce for a chance to ignore
    Maybe you'll kill yourself before you get a turn
    Maybe I'll fall in love and never learn
    
    [2:16]
          Bb F  Em  (chords implied by melody)
    ||----1--1--0----|| x4
    ||----3--1--0----||
    ||-o--3--2--0----||
    ||-o--3--3--2--o-||
    ||----1--3--2----||
    ||-------1--0----||
    Take the rope to my heart and fall
    You may just be the last before you see
    The black tangled heart fall
    
    [2:42]
    |------------------------------------------------------|
    |------------------------------------------------------|
    |------------------------------------------------------|
    |-2-2-2-2--2-2-2-2--2-2-2-2--2-2-2-2--2-2-2-2--2-2-2-2-|
    |-2-1-1-1--2-1-1-1--2-1-1-1--2-1-1-1--2-1-1-1--2-1-1-1-|
    |-0-0-0-0--0-0-0-0--0-0-0-0--0-0-0-0--0-0-0-0--0-0-0-0-|
    
    |-0--0--0--0--0--0--0--0--3--3--|(chords implied by melody)
    |-1--0--1--0--1--0--1--1--3--3--|
    |-0--0--0--0--0--0--0--0--0--3--|
    |-2--2--2--2--2--2--2--0--0--3--|
    |-3--2--3--2--3--2--3--2--2--1--|
    |----0-----0-----0--------3-----|
    
    |------------------------------------|
    |------------------------------------|
    |------------------------------------|
    |-2-2-2-2--2-2-2-2--2-2-2-2--2-2-2-2-|
    |-2-1-1-1--2-1-1-1--2-1-1-1--2-1-1-1-|
    |-0-0-0-0--0-0-0-0--0-0-0-0--0-0-0-0-|
    
    [3:32]
          Bb F  Em  (chords implied by melody)
    ||----1--1--0----|| x4
    ||----3--1--0----||
    ||-o--3--2--0----||
    ||-o--3--3--2--o-||
    ||----1--3--2----||
    ||-------1--0----||
    Take the rope to my heart and fall
    You may just be the last before you see
    The black tangled heart fall
    
    [3:58]
    |------------------------------------------------------|
    |------------------------------------------------------|
    |------------------------------------------------------|
    |-2-2-2-2--2-2-2-2--2-2-2-2--2-2-2-2--2-2-2-2--0-0-0-0-|
    |-2-1-1-1--2-1-1-1--2-1-1-1--2-1-1-1--1-1-1-1--0-0-0-0-|
    |-0-0-0-0--0-0-0-0--0-0-0-0--0-0-0-0--0-0-0-0--0-0-0-0-|
    
    |------------------------------------|
    |------------------------------------|
    |------------------------------------|
    |-2-2-2-2--2-2-2-2--2-2-2-2--2-2-2-2-|
    |-2-2-2-2--1-1-1-1--0-0-0-0--2-2-2-2-|
    |-0-0-0-0--0-0-0-0--0-0-0-0--0-0-0-0-|
    
    (drum break)
    
    |---------------------------|
    |---------------------------|
    |---------------------------|
    |-2-2-2-2--2-2-2-2--2-2-2-2-|
    |-2-2-2-2--1-1-1-1--0-0-0-0-|
    |-0-0-0-0--0-0-0-0--0-0-0-0-|
    
    (drum break)
    
    |---------------------------|
    |---------------------------|
    |---------------------------|
    |-2-2-2-2--2-2-2-2--2-2-2-2-|
    |-2-2-2-2--1-1-1-1--0-0-0-0-|
    |-0-0-0-0--0-0-0-0--0-0-0-0-|
    
    (drum break)
    
    |---------------------------|
    |---------------------------|
    |---------------------------|
    |-2-2-2-2--2-2-2-2--2-2-2-2-|
    |-2-2-2-2--1-1-1-1--0-0-0-0-|
    |-0-0-0-0--0-0-0-0--0-0-0-0-|
    
    [Top]
    9. Point of View

    Alternative tuning; Open Absus2: Eb-Ab-Eb-Ab-Bb-Eb low to high
    from standard tuning, from low to high:
    * tune down the low E string to Eb (1 half-step down)
    * tune down the A string to Ab (1 half-step down)
    * tune up the D string to Eb (1 half-step up)
    * tune up the G string to Ab (1 half-step up)
    * tune down the B string to Bb (1 half-step down)
    * tune down the high E string to Eb (1 half-step down) (on the official tabs, there are two different guitars using the same tuning except for the lowest string, which is Ab for Gtr. 1 and Db for the Gtr. 2 & 3 whereas only Gtr. 2 use once this string!!)
    All chords are "really-sounding" chords.

    [0:00] (keep the position: 5th finger on Eb string and 2nd finger on Bb string and use
             the 4th and the 3rd fingers on Ab string
         Absus4 Abadd4  Cbmaj7/Eb          x3 Absus4 Abadd4  Cbmaj7/Eb    Abm6 Ab7sus2
    Eb||------5---5---------3-----3--------||---5---5---------3-----3----|--0--|--0--|
    Bb||-------3---3---------1-----1-------||----3---3---------1-------0-|--1--|--0--|
    Ab||-o--5---4---4-0-0h2---2-----2-0--o-||-5---4---4-0-0h2---2-----0--|--0--|--0--|
    Eb||-o--0---0-------0-------0--------o-||-0---0-------0-------0------|--2--|--3--|
    Ab||----0---0--------------------------||-0---0----------------------|--0--|--0--|
    Eb||-----------------------------------||----------------------------|-----|-----|
    Liberate the people that you hate
    Then cut yourself again
    Elevate then drop back down 
    And see which ones remain
    Remember all that she can say
    Is that she knows she wants it
    
    [0:32]
          G     F# E  C#      x2 (implied melody)
    ||------------------------||
    ||----8--8-8-7-5--2--2----||
    ||-o--0--0-0-0-0--0--0--o-||
    ||-o--0--0-0-0-0--0--0--o-||
    ||----0--0-0-0-0--0--0----||
    ||------------------------||
    
          Dbsus2    Bb7sus4        Dbsus2    Fb5add4#         x2
    ||--------------------------------------------------------||
    ||--------------------------------------------------------||
    ||-o--0--0-0-0--0--0-0--0-0-0--0--0-0-0--0--0-0--0-0-0--o-||
    ||-o--5--5-5-5--2--2-2--2-2-2--5--5-5-5--8--8-8--8-8-8--o-||
    ||----5--5-5-5--2--2-2--2-2-2--5--5-5-5--8--8-8--8-8-8----||
    ||--------------------------------------------------------||
    You'll make it through
    With another point of view again
    
          G     F# E  C#      x2 (implied melody)
    ||------------------------||
    ||----8--8-8-7-5--2--2----||
    ||-o--0--0-0-0-0--0--0--o-||
    ||-o--0--0-0-0-0--0--0--o-||
    ||----0--0-0-0-0--0--0----||
    ||------------------------||
    
          Dbsus2    Bb7sus4        Dbsus2    Fb5add4#         x2
    ||--------------------------------------------------------||
    ||--------------------------------------------------------||
    ||-o--0--0-0-0--0--0-0--0-0-0--0--0-0-0--0--0-0--0-0-0--o-||
    ||-o--5--5-5-5--2--2-2--2-2-2--5--5-5-5--8--8-8--8-8-8--o-||
    ||----5--5-5-5--2--2-2--2-2-2--5--5-5-5--8--8-8--8-8-8----||
    ||--------------------------------------------------------||
    You'll make it through
    With another point
    
          A5                         x2
    ||-------------------------------||
    ||-------------------------------||
    ||-o---------------------------o-||
    ||-o--0--0-0---5---------------o-||
    ||----0--0-0--5------------------||
    ||----------------5-5-5-5-5-5----||
                  n.h.       (play the natural harmonics)
    
    [1:04]
       Absus4 Abadd4  Cbmaj7/Eb          x3 Absus4 Abadd4  Cbmaj7/Eb    Abm6 Ab7sus2
    ||------5---5---------3-----3--------||---5---5---------3-----3----|--0--|--0--|
    ||-------3---3---------1-----1-------||----3---3---------1-------0-|--1--|--0--|
    ||-o--5---4---4-0-0h2---2-----2-0--o-||-5---4---4-0-0h2---2-----0--|--0--|--0--|
    ||-o--0---0-------0-------0--------o-||-0---0-------0-------0------|--2--|--3--|
    ||----0---0--------------------------||-0---0----------------------|--0--|--0--|
    ||-----------------------------------||----------------------------|-----|-----|
    Accusation, does yes mean no?
    Or have you changed your mind?
    Kill the nation before it grows
    And be one of a kind
    Remember all that she can say
    Is that she knows she wants it
    
    [1:36]
          G     F# E  C#      x2 (implied melody)
    ||------------------------||
    ||----8--8-8-7-5--2--2----||
    ||-o--0--0-0-0-0--0--0--o-||
    ||-o--0--0-0-0-0--0--0--o-||
    ||----0--0-0-0-0--0--0----||
    ||------------------------||
    
          Dbsus2    Bb7sus4        Dbsus2    Fb5add4#         x2
    ||--------------------------------------------------------||
    ||--------------------------------------------------------||
    ||-o--0--0-0-0--0--0-0--0-0-0--0--0-0-0--0--0-0--0-0-0--o-||
    ||-o--5--5-5-5--2--2-2--2-2-2--5--5-5-5--8--8-8--8-8-8--o-||
    ||----5--5-5-5--2--2-2--2-2-2--5--5-5-5--8--8-8--8-8-8----||
    ||--------------------------------------------------------||
    You'll make it through
    With another point of view again
    
          G     F# E  C#      x2 (implied melody)
    ||------------------------||
    ||----8--8-8-7-5--2--2----||
    ||-o--0--0-0-0-0--0--0--o-||
    ||-o--0--0-0-0-0--0--0--o-||
    ||----0--0-0-0-0--0--0----||
    ||------------------------||
    
          Dbsus2    Bb7sus4        Dbsus2    Fb5add4#         x2
    ||--------------------------------------------------------||
    ||--------------------------------------------------------||
    ||-o--0--0-0-0--0--0-0--0-0-0--0--0-0-0--0--0-0--0-0-0--o-||
    ||-o--5--5-5-5--2--2-2--2-2-2--5--5-5-5--8--8-8--8-8-8--o-||
    ||----5--5-5-5--2--2-2--2-2-2--5--5-5-5--8--8-8--8-8-8----||
    ||--------------------------------------------------------||
    You'll make it through
    With another point
    
     Abm6 Cb5 Abm6 Cb5      A5                         x2
    |-----------------||-------------------------------||
    |--1-------1------||-------------------------------||
    |--0---3---0---3--||-o---------------------------o-||
    |--2---3---2---3--||-o--0--0-0---5---------------o-||
    |--0---3---0---3--||----0--0-0--5------------------||
    |-----------------||----------------5-5-5-5-5-5----||
                                    n.h.       (play the natural harmonics)
    Pretend the world's an ocean
    Oh, I'm drowning
    
     Abm6 Cb5 Abm6 Cb5      A5                         x2
    |-----------------||-------------------------------||
    |--1-------1------||-------------------------------||
    |--0---3---0---3--||-o---------------------------o-||
    |--2---3---2---3--||-o--0--0-0---5---------------o-||
    |--0---3---0---3--||----0--0-0--5------------------||
    |-----------------||----------------5-5-5-5-5-5----||
                                    n.h.       (play the natural harmonics)
    Pretend that I'm pollution
    Oh, I'm dying
    
     Abm6 Cb5 Abm6 Cb5
    |-----------------|
    |--1-------1------|
    |--0---3---0---3--|
    |--2---3---2---3--|
    |--0---3---0---3--|
    |-----------------|
    Pretend the steak's a cowboy
    And the kiss will kill you
    
    [2:33]
       Absus4 Abadd4  Cbmaj7/Eb          x2
    ||------5---5---------3-----3--------||
    ||-------3---3---------1-----1-------||
    ||-o--5---4---4-0-0s2---2-----2-0--o-||
    ||-o--0---0-------0-------0--------o-||
    ||----0---0--------------------------||
    ||-----------------------------------||
    
    [2:47]
          G     F# E  C#      x2 (implied melody)
    ||------------------------||
    ||----8--8-8-7-5--2--2----||
    ||-o--0--0-0-0-0--0--0--o-||
    ||-o--0--0-0-0-0--0--0--o-||
    ||----0--0-0-0-0--0--0----||
    ||------------------------||
    
          D5        B5             D5        F5                     x2
    ||--------------------------------------------------------------||
    ||--------------------------------------------------------------||
    ||-o--7--7-7-7--4--4-4--4-4-4--7--7-7-7--10--10-10--10-10-10--o-||
    ||-o--7--7-7-7--4--4-4--4-4-4--7--7-7-7--10--10-10--10-10-10--o-||
    ||----5--5-5-5--2--2-2--2-2-2--5--5-5-5---8---8--8---8--8--8----||
    ||--------------------------------------------------------------||
    You'll make it through
    With another point of view again
    
          G        F#  E  C#     x2
    ||---------------------------||
    ||---------------------------||
    ||-o--12--12-12-11-9--6-6--o-||
    ||-o-----------------------o-||
    ||----10--10-10--9-7--4-4----||
    ||---------------------------||
    
          Dbsus2    Bb7sus4        Dbsus2    Fb5add4#         x2
    ||--------------------------------------------------------||
    ||--------------------------------------------------------||
    ||-o--0--0-0-0--0--0-0--0-0-0--0--0-0-0--0--0-0--0-0-0--o-||
    ||-o--5--5-5-5--2--2-2--2-2-2--5--5-5-5--8--8-8--8-8-8--o-||
    ||----5--5-5-5--2--2-2--2-2-2--5--5-5-5--8--8-8--8-8-8----||
    ||--------------------------------------------------------||
    You'll make it through
    With another point
    
    [3:12]
       Absus4 Abadd4       Absus2
    |---5---5---------3---------0-|
    |----5---3---------1-------0--|
    |-5---4---4-0-0h2---2-----0---|
    |-0---0-------0----------0----|
    |-0---0-----------------0-----|
    |----------------------0------|
    
    [Top]
    10. Satin Sheets

    Standard tuning.

    [0:00]
           F5  C#5 G#5 D#5
    e||-----------------------|| x8
    B||-----------------------||
    G||-o------6-6-----8-8--o-||
    D||-o--3-3-6-6-6-6-8-8--o-||
    A||----3-3-4-4-6-6-6-6----||
    E||----1-1-----4-4--------||
    
    [0:16] guitars out
    
    [0:28]
      F5      F5      F5      E5   F#5
    |-------|-------|-------|-----------|
    |-------|-------|-------|-----------|
    |-------|-------|-------|-----------|
    |-3-3---|-3-3---|-3-3---|-2-2--4-4--|
    |-3-3---|-3-3---|-3-3---|-2-2--4-4--|
    |-1-1---|-1-1---|-1-1---|-0-0--2-2--|
    Just wait for us to say it
    And we'll make you lie
    
      F5      F5      F5      F#5  E5
    |-------|-------|-------|-----------|
    |-------|-------|-------|-----------|
    |-------|-------|-------|-----------|
    |-3-3---|-3-3---|-3-3---|-4-4--2-2--|
    |-3-3---|-3-3---|-3-3---|-4-4--2-2--|
    |-1-1---|-1-1---|-1-1---|-2-2--0-0--|
    And anyone who cares
    Lies on satin sheets
    
    [0:40]
      F5    D#5/G#  E5     F5    D#5/G#  E5
    |-------------|-0----|-------------|----------------|
    |-------------|-0----|-------------|----------------|
    |-------6-6-6-|-x----|-------6-6-6-|----------------|
    |-3-3-3-4-4-4-|-2----|-3-3-3-4-4-4-|-2-2--2--2-2--2-|
    |-3-3-3-4-4-4-|-2----|-3-3-3-4-4-4-|-2-2--2--2-2--2-|
    |-1-1-1-4-4-4-|-0----|-1-1-1-4-4-4-|-0-0--0--0-0--0-|
                                         * *     * *      *=PALM MUTE
      F5    D#5/G#  E5     F5    D#5/G#  E5
    |-------------|-0----|-------------|----------------|----------------|
    |-------------|-0----|-------------|----------------|----------------|
    |-------6-6-6-|-x----|-------6-6-6-|----------------|----------------|
    |-3-3-3-4-4-4-|-2----|-3-3-3-4-4-4-|-2-2--2--2-2--2-|-2-2--2--2-2--2-|
    |-3-3-3-4-4-4-|-2----|-3-3-3-4-4-4-|-2-2--2--2-2--2-|-2-2--2--2-2--2-|
    |-1-1-1-4-4-4-|-0----|-1-1-1-4-4-4-|-0-0--0--0-0--0-|-0-0--0--0-0--0-|
                                         * *     * *      * *     * *
    And I waste my time on no-one
    And you think I really care
    
    [0:53]
          F5  C#5 G#5 D#5
    ||-----------------------|| x9
    ||-----------------------||
    ||-o------6-6-----8-8--o-||
    ||-o--3-3-6-6-6-6-8-8--o-||
    ||----3-3-4-4-6-6-6-6----||
    ||----1-1-----4-4--------||
    
    [1:06]
      F5      F5      F5      E5   F#5
    |-------|-------|-------|-----------|
    |-------|-------|-------|-----------|
    |-------|-------|-------|-----------|
    |-3-3---|-3-3---|-3-3---|-2-2--4-4--|
    |-3-3---|-3-3---|-3-3---|-2-2--4-4--|
    |-1-1---|-1-1---|-1-1---|-0-0--2-2--|
    Wears a saturn bracelet
    Lined with cocaine coins
    
      F5      F5      F5      F#5  E5
    |-------|-------|-------|-----------|
    |-------|-------|-------|-----------|
    |-------|-------|-------|-----------|
    |-3-3---|-3-3---|-3-3---|-4-4--2-2--|
    |-3-3---|-3-3---|-3-3---|-4-4--2-2--|
    |-1-1---|-1-1---|-1-1---|-2-2--0-0--|
    "No chance" slipped away
    Toddley training toys...
    
    [1:18]
      F5    D#5/G#  E5     F5    D#5/G#  E5
    |-------------|-0----|-------------|----------------|
    |-------------|-0----|-------------|----------------|
    |-------6-6-6-|-x----|-------6-6-6-|----------------|
    |-3-3-3-4-4-4-|-2----|-3-3-3-4-4-4-|-2-2--2--2-2--2-|
    |-3-3-3-4-4-4-|-2----|-3-3-3-4-4-4-|-2-2--2--2-2--2-|
    |-1-1-1-4-4-4-|-0----|-1-1-1-4-4-4-|-0-0--0--0-0--0-|
                                         * *     * *      *=PALM MUTE
      F5    D#5/G#  E5     F5    D#5/G#      E5
    |-------------|-0----|-------------||----------------------|| x4
    |-------------|-0----|-------------||----------------------||
    |-------6-6-6-|-x----|-------6-6-6-||-o------------------o-||
    |-3-3-3-4-4-4-|-2----|-3-3-3-4-4-4-||-o--2-2--2--2-2--2--o-||
    |-3-3-3-4-4-4-|-2----|-3-3-3-4-4-4-||----2-2--2--2-2--2----||
    |-1-1-1-4-4-4-|-0----|-1-1-1-4-4-4-||----0-0--0--0-0--0----||
                                             * *     * *
    And I waste my time on no-one
    And you think I really care
    
    [1:34]
          E5      x16 D5/E E5    x17
    ||-------------||-------------||
    ||-------------||-------------||
    ||-o--9-9-9--o-||-o---------o-||
    ||-o--x-x-x--o-||-o--0-2-2--o-||
    ||----7-7-7----||----0-2-2----||
    ||----0-0-0----||----0-0-0----||
    
    [2:02]
      F5    D#5/G#  E5                   F5    D#5/G#  E5    x2
    |-------------|----------------||----------------|-0-----||
    |-------------|----------------||----------------|-0-----||
    |-------6-6-6-|----------------||-o--------6-6-6-|-x---o-||
    |-3-3-3-4-4-4-|-2-2--2--2-2--2-||-o--3-3-3-4-4-4-|-2---o-||
    |-3-3-3-4-4-4-|-2-2--2--2-2--2-||----3-3-3-4-4-4-|-2-----||
    |-1-1-1-4-4-4-|-0-0--0--0-0--0-||----1-1-1-4-4-4-|-0-----||
                    * *     * *
    And I waste my time on no-one
    And you think I really care
    
    [2:21]
     E5 F5    E5 F5
    |----------------|
    |----------------|
    |----------------|
    |-2-3-3-3--2-3-3-|
    |-2-3-3-3--2-3-3-|
    |-0-1-1-1--0-1-1-|
    
    [Top]
    11. Paint Pastel Princess

    Alternative tuning; Open Db: Db-Ab-Db-Ab-Db-Db low to high
    from standard tuning, from low to high:
    * tune down the low E string to Db (3 half-steps down)
    * tune down the A string to Ab (1 half-step down)
    * tune down the D string to Db (1 half-step down)
    * tune up the G string to Ab (1 half-step up)
    * tune up the B string to Db (2 half-steps up)
    * tune down the high E string to Db (3 half-steps down), so that the two strings are the same

    [0:00]
    Db|---------------------------------|-------------------------0-------|
    Db|-----4-----5-----7-------7-------|-----4-----5-----7-----5-----5---|
    Ab|---5----/7----/9-----9-----9---9-|---5----/7----/9-----4-----4---4-|
    Db|-0-----0-----0-----0---0-----0---|-0-----0-----0-----0-------------|
    Ab|---------------------------------|---------------------------------|
    Db|---------------------------------|---------------------------------|
    
    |---------------------------------|-------------------------0-------|
    |-----4-----5-----7-------7-------|-----4-----5-----7-----5-----5---|
    |---5----/7----/9-----9-----9---9-|---5----/7----/9-----4-----4---4-|
    |-0-----0-----0-----0---0-----0---|-0-----0-----0-----0-------------|
    |---------------------------------|---------------------------------|
    |---------------------------------|---------------------------------|
    
    |---------------------------------------------|
    |-----5-----5--------5-----5--------5-----5---|
    |---4-----4---4----4-----4---4----4-----4---4-|
    |-0--------------0--------------0-------------|
    |---------------------------------------------|
    |---------------------------------------------|
    
    [0:19]
      D5                                                  F5            E5
    |-0--0-0-0--0-0-0-0--0-0-|-0--0--0-0--0-0-0-0--0-0--|--0---0--0---0-0--0-0-0-0-0-0-0-|
    |-4--4-4-4--4-4-4-4--4-4-|-4--4--4-4--4-4-4-4--4-4--|--0---0--0---0-0--0-0-0-0-0-0-0-|
    |-5--5-5-5--5-5-5-5--5-5-|-5--5--5-5--5-5-5-5--5-5--|--8---8--8---8-7--7-7-7-7-7-7-7-|
    |-0--0-0-0--0-0-0-0--0-0-|-0--0--0-0--0-0-0-0--0-0--|-10--10-10--10-9--9-9-9-9-9-9-9-|
    |-0--0-0-0--0-0-0-0--0-0-|-0--0--0-0--0-0-0-0--0-0--|--8---8--8---8-7--7-7-7-7-7-7-7-|
    |-0--0-0-0--0-0-0-0--0-0-|-0--0--0-0--0-0-0-0--0-0--|--------------------------------|
    It's only self rejection
    With a mean left
    
      D5                   D5-                            F5            E5
    |-7--7-7-7--7-7-7-7--7-6-|-6--6--6-6--6-6-6-6--6-6--|--0---0--0---0-0--0-0-0-0-0-0-0-|
    |-4--4-4-4--4-4-4-4--4-4-|-4--4--4-4--4-4-4-4--4-4--|--0---0--0---0-0--0-0-0-0-0-0-0-|
    |-5--5-5-5--5-5-5-5--5-5-|-5--5--5-5--5-5-5-5--5-5--|--8---8--8---8-7--7-7-7-7-7-7-7-|
    |-0--0-0-0--0-0-0-0--0-0-|-0--0--0-0--0-0-0-0--0-0--|-10--10-10--10-9--9-9-9-9-9-9-9-|
    |-0--0-0-0--0-0-0-0--0-0-|-0--0--0-0--0-0-0-0--0-0--|--8---8--8---8-7--7-7-7-7-7-7-7-|
    |-0--0-0-0--0-0-0-0--0-0-|-0--0--0-0--0-0-0-0--0-0--|--------------------------------|
    
      F5            G5
    |--0---0--0---0--0---0--0--0--0--0--0--0-|-0--0--0-0--0-0-0-0--0-0-|
    |--0---0--0---0--0---0--0--0--0--0--0--0-|-4--4--4-4--4-4-4-4--4-4-|
    |--8---8--8---8-10--10-10-10-10-10-10-10-|-5--5--5-5--5-5-5-5--5-5-|
    |-10--10-10--10-12--12-12-12-12-12-12-12-|-0--0--0-0--0-0-0-0--0-0-|
    |--8---8--8---8-10--10-10-10-10-10-10-10-|-0--0--0-0--0-0-0-0--0-0-|
    |----------------------------------------|-0--0--0-0--0-0-0-0--0-0-|
    Cold carbon copied coping
    And it's mean theft
    That's been left behind
    
    [0:41]
       Acoustic (play eight times each chord)
             Bm       D          x4
       ||----0--------0----------||
       ||----0--------0----------||
       ||-o--2--------0--------o-||
    (  ||-o--4--------0--------o-||
    (  ||----2--------0----------||
    (  ||-------------0----------||
    (
    (  Electric guitar           x4
    (  ||------------------------||
    (  ||------------------------||
    (  ||-o--------------------o-||
       ||-o--------------------o-||
       ||----2-/4--5-------------||
       ||-------------0--2--4----||
    Paint pastel princess
    Bo and arapax
    The shelves when they're broken
    I'll beg you, beg you
    
    [1:04]
    |---------------------------------|-------------------------0-------|
    |-----4-----5-----7-------7-------|-----4-----5-----7-----5-----5---|
    |---5----/7----/9-----9-----9---9-|---5----/7----/9-----4-----4---4-|
    |-0-----0-----0-----0---0-----0---|-0-----0-----0-----0-------------|
    |---------------------------------|---------------------------------|
    |---------------------------------|---------------------------------|
    
    [1:10]
      D5                       D5add4                     F5            E5
    |-0--0-0-0--0-0-0-0--0-0-|-0--0--0-0--0-0-0-0--0-0--|--0---0--0---0-0--0-0-0-0-0-0-0-|
    |-4--4-4-4--4-4-4-4--4-4-|-6--6--6-6--6-6-6-6--6-6--|--0---0--0---0-0--0-0-0-0-0-0-0-|
    |-5--5-5-5--5-5-5-5--5-5-|-5--5--5-5--5-5-5-5--5-5--|--8---8--8---8-7--7-7-7-7-7-7-7-|
    |-0--0-0-0--0-0-0-0--0-0-|-0--0--0-0--0-0-0-0--0-0--|-10--10-10--10-9--9-9-9-9-9-9-9-|
    |-0--0-0-0--0-0-0-0--0-0-|-0--0--0-0--0-0-0-0--0-0--|--8---8--8---8-7--7-7-7-7-7-7-7-|
    |-0--0-0-0--0-0-0-0--0-0-|-0--0--0-0--0-0-0-0--0-0--|--------------------------------|
    Waste life when youth is sweeter, neater
    Content with contents
    
      D5                       D5add4                     F5            E5
    |-0--0-0-0--0-0-0-0--0-0-|-0--0--0-0--0-0-0-0--0-0--|--0---0--0---0-0--0-0-0-0-0-0-0-|
    |-4--4-4-4--4-4-4-4--4-4-|-6--6--6-6--6-6-6-6--6-6--|--0---0--0---0-0--0-0-0-0-0-0-0-|
    |-5--5-5-5--5-5-5-5--5-5-|-5--5--5-5--5-5-5-5--5-5--|--8---8--8---8-7--7-7-7-7-7-7-7-|
    |-0--0-0-0--0-0-0-0--0-0-|-0--0--0-0--0-0-0-0--0-0--|-10--10-10--10-9--9-9-9-9-9-9-9-|
    |-0--0-0-0--0-0-0-0--0-0-|-0--0--0-0--0-0-0-0--0-0--|--8---8--8---8-7--7-7-7-7-7-7-7-|
    |-0--0-0-0--0-0-0-0--0-0-|-0--0--0-0--0-0-0-0--0-0--|--------------------------------|
    
      F5            G5
    |--0---0--0---0--0---0--0--0--0--0--0--0-|-0--0--0-0--0-0-0-0--0-0-|
    |--0---0--0---0--0---0--0--0--0--0--0--0-|-4--4--4-4--4-4-4-4--4-4-|
    |--8---8--8---8-10--10-10-10-10-10-10-10-|-5--5--5-5--5-5-5-5--5-5-|
    |-10--10-10--10-12--12-12-12-12-12-12-12-|-0--0--0-0--0-0-0-0--0-0-|
    |--8---8--8---8-10--10-10-10-10-10-10-10-|-0--0--0-0--0-0-0-0--0-0-|
    |----------------------------------------|-0--0--0-0--0-0-0-0--0-0-|
    Cultures cringing at accents
    And it's too tense, camp out
    
    [1:33]
       Acoustic (play eight times each chord)
             Bm       D          x4
       ||----0--------0----------||
       ||----0--------0----------||
       ||-o--2--------0--------o-||
    (  ||-o--4--------0--------o-||
    (  ||----2--------0----------||
    (  ||-------------0----------||
    (
    (  Electric guitar           x4
    (  ||------------------------||
    (  ||------------------------||
    (  ||-o--------------------o-||
       ||-o--------------------o-||
       ||----2-/4--5-------------||
       ||-------------0--2--4----||
    She tastes the candy
    Sugarless, cancerous
    Crave cocaine cop shows
    I'll beg you, beg you
    
    [1:55]
    ||----0-x-0-x-0--0-0--0-|-0-x-0-x-0--0-0--0----|| x4
    ||----4-x-7-x-9--9-9--9-|-9-x-7-x-5--5-5--5----||
    ||-o--5---5---7--7-7--7-|-7---5---4--4-4--4--o-||
    ||-o--0---0---0--0-0--0-|-0---0---0--0-0--0--o-||
    ||----------------------|----------------------||
    ||----------------------|----------------------||
    But it's all the same to me (x4)
    
    [2:18]
    |-0--0--0-0--0--0-0-0-|-0--0--0-0--0--0-0-0-|
    |-6--6--4-6--6--4-6-7-|-6--6--4-6--6--4-6-4-|
    |-4--4--4-4--4--4-4-4-|-4--4--4-4--4--4-4-4-|
    |-0--0--0-0--0--0-0-0-|-0--0--0-0--0--0-0-0-|
    |---------------------|---------------------|
    |---------------------|---------------------|
    
    |-0--0--0-0--0--0-0-0-|-0--0---------------|
    |-6--6--4-6--6--4-6-7-|-6--6---------------|
    |-4--4--4-4--4--4-4-4-|-4--4---------------|
    |-0--0--0-0--0--0-0-0-|-0--0--0-3-5-7--7-0-|
    |---------------------|-------0-3-5-7--7-0-|
    |---------------------|-------0-3-5-7--7-0-|
                                  |->distortion on
    
    [2:29]
          F G A   D                       x4 F G A F D
    ||----------------7-6-4--2-4-6-4-4----||-----------|
    ||------------------------------------||-----------|
    ||-o--------------------------------o-||-----------|
    ||-o--3-5-7-7-0---------------------o-||-3-5-7-3-0-|
    ||----3-5-7-7-0-----------------------||-3-5-7-3-0-|
    ||----3-5-7-7-0-----------------------||-3-5-7-3-0-|
                     |violin arranged|
                     |  for guitar   |
    
    [2:46]
          D                 F G#F#D#D    x3 D             F G#F#D#
    ||-----------------------------------||-----------------------|
    ||-----------------------------------||-----------------------|
    ||-o-------------------------------o-||-----------------------|
    ||-o--0-0-0--0-0-0--0-0-3-6-4-1-0--o-||-0-0-0--0-0-0--3-6-4-1-|
    ||----0-0-0--0-0-0--0-0-3-6-4-1-0----||-0-0-0--0-0-0--3-6-4-1-|
    ||----0-0-0--0-0-0--0-0-3-6-4-1-0----||-0-0-0--0-0-0--3-6-4-1-|
          ***    ***    ***                 ***    ***              *:palm mute
    
    [3:05]
    ||------------------------------------|-------------------------0----------|| x2
    ||--------4-----5-----7-------7-------|-----4-----5-----7-----5-----5------||
    ||-o----5----/7----/9-----9-----9---9-|---5----/7----/9-----4-----4---4--o-||
    ||-o--0-----0-----0-----0---0-----0---|-0-----0-----0-----0--------------o-||
    ||------------------------------------|------------------------------------||
    ||------------------------------------|------------------------------------||
    
    [3:16]
    ||----0-x-0-x-0------|-0-x-0-x-0--0-0--0----|| x2
    ||----4-x-7-x-9------|-9-x-7-x-5--5-5--5----||
    ||-o--5---5---7------|-7---5---4--4-4--4--o-||
    ||-o--0---0---0--0-0-|-0---0---0--0-0--0--o-||
    ||---------------0-0-|----------------------||
    ||---------------0-0-|----------------------||
    
    [3:25]                                         x4
    ||----0-x-0-x-0--0-0--0-|-0-x-0-x-0--0-0--0----||-0-|
    ||----4-x-7-x-9--9-9--9-|-9-x-7-x-5--5-5--5----||-5-| (keep this chord)
    ||-o--5---5---7--7-7--7-|-7---5---4--4-4--4--o-||-4-|
    ||-o--0---0---0--0-0--0-|-0---0---0--0-0--0--o-||-0-|
    ||----------------------|----------------------||---|
    ||----------------------|----------------------||---|
    But it's all the same to me (x4)
    
    [3:57]
       Acoustic (play eight times each chord)
             Bm       D          x4 B5
       ||----0--------0----------||---|
       ||----0--------0----------||---|
       ||-o--2--------0--------o-||-2-|
    (  ||-o--4--------0--------o-||-4-|
    (  ||----2--------0----------||-2-|
    (  ||-------------0----------||---|
    (
    (  Electric guitar           x4
    (  ||------------------------||---|
    (  ||------------------------||---|
    (  ||-o--------------------o-||---|
       ||-o--------------------o-||---|
       ||----2-/4--5-------------||-2-|
       ||-------------0--2--4----||---|
    Paint pastel princess
    Bo and arapax
    The shelves when they're broken
    I'll beg you, beg you
    
    [Top]
    12. Steam Will Rise

    Standard tuning.

    [0:00] Bass (arranged for guitar)
    e||------------------------|-------------------------||
    B||------------------------|-------------------------||
    G||-o----------------------|-----------------------o-||
    D||-o----------------------|-----------------------o-||
    A||----0-0--0-2-3--3---3-0-|-------------------------||
    E||------------------------|-1-1--1-1--1-1--1-1h3----||
    
    [0:12] Guitars in
    |-----------11--------------|----------11----------|
    |-15--15-15----15-----------|----15-15----15-------|
    |-----------------12-12h14~-|-12-------------12h14-|
    |---------------------------|----------------------|
    |---------------------------|----------------------|
    |---------------------------|----------------------|
          |-let ring-|               |-let ring-|
    
    |-----------11--------------|----------11----------|
    |-----15-15----15-----------|----15-15----15-------|
    |-----------------12-12h14~-|-12-------------12h14-|
    |-12------------------------|----------------------|
    |---------------------------|----------------------|
    |---------------------------|----------------------|
          |-let ring-|               |-let ring-|
    
    [0:24] Guitars out
    Contain yourself
    I will compress what I am to
    
    [0:35] (with chorus)
          Am      C6        Fmaj7#11          x2
    ||--------------------|-------------------||
    ||--------1-------1---|-----0------0------||
    ||----------2-------2-|-------2------2--o-||
    ||-o----2-------2-----|----------2------o-||
    ||-o--0-------3-------|---3---------------||
    ||--------------------|-1-----------------||
    Replace yourself
    With what you have
    Your substitute
    
    [0:47]
      G              G#maj7b  F5
    |------------------|-------|
    |------------0---1-|-1-----|
    |----0-------0-0-0-|-0-----|
    |----------------0-|---0---|
    |------------------|-----3-|
    |-3--3-3-3-3-3-3-4-|-4---1-|
    Only wanted a piece of myself
    
    [0:54]
          Am      Am/G      Fmaj7#11          x4
    ||--------------------|-------------------||
    ||--------1-------1---|-------0-----------||
    ||----------2-------2-|----------2------o-||
    ||-o----2-------2-----|-----2------2----o-||
    ||-o--0---------------|---3----------3----||
    ||------------3-------|-1-----------------||
    Steam will rise (x4)
    
    [1:23] Bass in then TWO guitars in (little delay between them):
        |-------12--------------|-12----11-11-12----11-11-|-12----11----11--------------|
        |-16-16----16-16-16-----|----15----------15-------|----15----15----15-----------|
        |-----------------------|-------------------------|-------------------14-12-14~-|
     {  |-----------------------|-------------------------|-----------------------------|
     {  |-----------------------|-------------------------|-----------------------------|
     {  |-----------------------|-------------------------|-----------------------------|
     {       | let|                  | let|      | let|        | let ring |
     (       |ring|                  |ring|      |ring|
     (
     {  |-----------------------|-------------------------|-----------------------------|
     {  |-------------12-12h14~-|----------------12-12s14-|-----------------------------|
     {  |-----------------------|-------------------------|-------12----14----12b14~----|
        |-----------------------|----12-------------------|----------------12-----------|
        |-----------------------|-------------------------|-----------------------------|
        |-----------------------|-------------------------|-----------------------------|
    
    [1:31] Guitars out
    Refrain
    Confess
    Contain
    Repress
    Pretend I'm dead
    Abuse myself
    Confuse myself
    I won't be led
    
    [1:54]
      G              G#maj7b  F5        G              G#maj7b F5         G          G#maj7b  F5
    |------------------|--------------|------------------|--------------|---------------|-------|
    |------------0---1-|-1------------|------------0---1-|-1------0-----|-------0-0-----|-1-----|
    |----0-------0-0-0-|-0------0-----|----0-------0-0-0-|-0------0-0---|----0--0-0-----|-1-----|
    |----------------0-|---0------0-0-|----------------0-|---0------0-0-|-0--0------0-1-|-1-0---|
    |------------------|-----3----3-3-|------------------|-----3--------|-x--x----------|-----3-|
    |-3--3-3-3-3-3-3-4-|-4---1----1-1-|-3--3-3-3-3-3-3-4-|-4---1--------|-3--3--3-3---4-|-----1-|
    Only wanted a piece of myself (x3)
    
    [2:13]
          Am      Am/G      Fmaj7#11          x4
    ||--------------------|-------------------||
    ||--------1-------1---|-------0-----------||
    ||----------2-------2-|----------2------o-||
    ||-o----2-------2-----|-----2------2----o-||
    ||-o--0---------------|---3----------3----||
    ||------------3-------|-1-----------------||
    Steam will rise (x4)
    
    [2:37]
          A5-     G5-     A#5                 x3 A5-     G5-    A#5-
    ||----------------------------------------||-------------------|
    ||----------------------------------------||-------------------|
    ||-o------------------------------------o-||-------------------|
    ||-o------7-------5-------8---10---8-7--o-||-----7-------5---8-|
    ||----------6-------4---------------------||-------6-------4-7-|
    ||----5-5-----3-3----/6-6---6----6--------||-5-5-----3-3-----6-|
    
    [3:22]
          Am      Am/G      Fmaj7#11          x4
    ||--------------------|-------------------||
    ||--------1-------1---|-------0-----------||
    ||----------2-------2-|----------2------o-||
    ||-o----2-------2-----|-----2------2----o-||
    ||-o--0---------------|---3----------3----||
    ||------------3-------|-1-----------------||
    Steam will rise (x4)
    
    [3:45]
    |----------11--------------|----------11----------|
    |-0--15-15----15-----------|----15-15----15-------|
    |----------------12-12h14~-|-12-------------12h14-|
    |--------------------------|----------------------|
    |--------------------------|----------------------|
    |--------------------------|----------------------|
          |-let ring-|               |-let ring-|
    
    |-----------11--------------|----------11----------|
    |-----15-15----15-----------|----15-15----15-------|
    |-----------------12-12h14~-|-12-------------12h14-|
    |-12------------------------|----------------------|
    |---------------------------|----------------------|
    |---------------------------|----------------------|
          |-let ring-|               |-let ring-|
    
    [3:57]
      A5-                                      A#5-  A5-
    |------------------|---------------------------|--------------------------|
    |------------------|---------------------------|--------------------------|
    |------------------|---------------------------|--------------------------|
    |------------------|---------------------------|--------------------------|
    |-6-6-6-6--6-6-6-6-|-6-6-6-6--6-6--6-6-6-6-7-7-|-6-6-6-6--x-x-6-6-6-6-6-6-|
    |-5-5-5-5--5-5-5-5-|-5-5-5-5--5-5--5-5-5-5-6-6-|-5-5-5-5--x-x-5-5-5-5-5-5-|
    
    
      A5-                    A#5-  A5-                  F5-/A F/A
    |----------------------------|----------------------------------|
    |----------------------------|----------------------------------|
    |----------------------------|----------------------------------|
    |----------------------------|-----7---7-7--7-7-7-----9-9-10-10-|
    |-6-6-6-6--6-6--6--6-6-6-7-7-|-6-6-6-6-6-6--6-6-6-6-6-8-8--8--8-|
    |-5-5-5-5--5-5--5--5-5-5-6-6-|-5-5-5-5-5-5--5-5-5-5-5-5-5--5--5-|
    
      A5-                 F5-/A Bbsus2  A5-                                       A#5-
    |---------------------------------|------------------|----------------------------|
    |---------------------------------|------------------|----------------------------|
    |---------------------------------|------------------|----------------------------|
    |-----7---7-7---7--7----9-9-10-10-|------------------|----------------------------|
    |-6-6-6-6-6-6-6-6--6--6-8-8--8--8-|-6-6-6-6--6-6-6-6-|-6-6-6-6--6-6--6--6-6-6-7-7-|
    |-5-5-5-5-5-5-5-5--5--5-5-5--6--6-|-5-5-5-5--5-5-5-5-|-5-5-5-5--5-5--5--5-5-5-6-6-|
    
    [4:20] (implied melody)
        Asus4 C    F       x8 Asus4
    ||-----------|---------||---|
    ||----3---5--|---------||-3-|
    ||-o---------|-2----o--||-2-|
    ||-o---------|-2----o--||---|
    ||-----------|---------||---|
    ||-----------|---------||---|
    
    [Top]
  • London's Burning

    Cover of the Clash. Standard tuning.

    [0:00]              x4
    e||-----------------||
    B||-----------------||
    G||-o-------------o-||
    D||-o-------------o-||
    A||----5-5-5-5-4----||
    E||----3-3-3-3-3----||
    London's burning!  (x4)
    
    [0:43]
          G5      F5      C5      D5         x4
    ||---------------------------------------||
    ||---------------------------------------||
    ||-o------------------5-5-5-5-7-7-7-7--o-||
    ||-o--5-5-5-5-3-3-3-3-5-5-5-5-7-7-7-7--o-||
    ||----5-5-5-5-3-3-3-3-3-3-3-3-5-5-5-5----||
    ||----3-3-3-3-1-1-1-1--------------------||
    
    [0:54]
    |-3-3-3-3-|
    |-3-3-3-3-|
    |---------|
    |---------|
    |---------|
    |---------|
    All across the town, all across the night
    Everybody's driving with full headlights
    Black or white turn it on, face the new religion
    Everybody's sitting 'round watching television!
    
    [1:05]
          G5      F5      C5      D5         x4
    ||---------------------------------------||
    ||---------------------------------------||
    ||-o------------------5-5-5-5-7-7-7-7--o-||
    ||-o--5-5-5-5-3-3-3-3-5-5-5-5-7-7-7-7--o-||
    ||----5-5-5-5-3-3-3-3-3-3-3-3-5-5-5-5----||
    ||----3-3-3-3-1-1-1-1--------------------||
    London's burning with boredom now
    London's burning dial 99999
    London's burning with boredom now
    London's burning dial 99999
    
    [1:16]
    |--------------|
    |--------------|
    |--------------|
    |-8h9----11h12-|
    |--------------|
    |--------------|
    I'm up and down the Westway, in an' out the lights
    What a great traffic system - it's so bright
    I can't think of a better way to spend the night
    Then speeding around underneath the yellow lights
    
    [1:27]
          G5      F5      C5      D5         x4
    ||---------------------------------------||
    ||---------------------------------------||
    ||-o------------------5-5-5-5-7-7-7-7--o-||
    ||-o--5-5-5-5-3-3-3-3-5-5-5-5-7-7-7-7--o-||
    ||----5-5-5-5-3-3-3-3-3-3-3-3-5-5-5-5----||
    ||----3-3-3-3-1-1-1-1--------------------||
    London's burning with boredom now
    London's burning dial 99999
    London's burning with boredom now
    London's burning dial 99999
    
    [1:38]
    Now I'm in the subway and I'm looking for the flat
    This one leads to this block, this one leads to that
    The wind howls through the empty blocks looking for a home
    I run through the empty stone because I'm all alone
    
    [1:50]
          G5      F5      C5      D5         x4
    ||---------------------------------------||
    ||---------------------------------------||
    ||-o------------------5-5-5-5-7-7-7-7--o-||
    ||-o--5-5-5-5-3-3-3-3-5-5-5-5-7-7-7-7--o-||
    ||----5-5-5-5-3-3-3-3-3-3-3-3-5-5-5-5----||
    ||----3-3-3-3-1-1-1-1--------------------||
    London's burning with boredom now
    London's burning dial 99999
    London's burning with boredom now
    London's burning dial 99999
    
    [2:02] Guitar solo
    
    [2:23]             x4
    ||-----------------||
    ||-----------------||
    ||-o-------------o-||
    ||-o-------------o-||
    ||----5-5-5-5-4----||
    ||----3-3-3-3-3----||
    London's burning! (x4)
    
    [Top]
  • Untitled

    Dropped-D tuning.

    [0:00]
           F5/D    F5/Bb   G4/E  G4/F  F5/Bb                               x2
    e||--------------------------------------------------------------------||
    B||----------------------1-----1---------------------------------------||
    G||-o----10------10-------0-----0----10-------10------10------10-----o-||
    D||-o------10------10---0--0--0--0-----10-------10------10------10---o-||
    A||-----8----8--8----8--------------8----10--8----8--8----8--8----8----||
    D||----0-------8-------2-----3-----8--------8-------8-------8----------||
    I'm just another body down
    Internal bleeding round and round
    
    [0:21]
          Asus2    Bsus4/A  G6       F7#11       x4
    ||----0--0-0-0-0--0-0-0-0--0-0-0-0--0-0-0----||
    ||----0--0-0-0-0--0-0-0-0--0-0-0-0--0-0-0----||
    ||-o--2--2-2-2-4--4-4-4-4--4-4-4-2--2-2-2--o-||
    ||-o--2--2-2-2-4--4-4-4-5--5-5-5-3--3-3-3--o-||
    ||----0--0-0-0-0--0-0-0-5--5-5-5-3--3-3-3----||
    ||----------------------5--5-5-5-3--3-3-3----||
    And all I keep thinking of are ways to die alone (x2)
    
    [0:43]
          F5/D    F5/Bb   G4/E  G4/F  F5/Bb          Bb5 D5   Bb5 D5       x2
    ||---------------------------------------------------------------------||
    ||----------------------1-----1----------------------------------------||
    ||-o----10------10-------0-----0----10-------10----------------------o-||
    ||-o------10------10---0--0--0--0-----10-------10--8-0-0-0--8-0-0-0--o-||
    ||-----8----8--8----8--------------8----10--8----8-8-0-0-0--8-0-0-0----||
    ||----0-------8-------2-----3-----8--------8-------8-0-0-0--8-0-0-0----||
                                                       |->distortion on
    A portrait of my skeletal gain
    Left selfish and hungry so feed me the pain
    
    [1:02]
       F5/D    F5/Bb   G4/E  G4/F  F5/Bb
    |---------------------------------------------------------------|
    |--------------------1-----1------------------------------------|
    |----10------10-------0-----0----10-------10------10------10----|
    |------10------10---0--0--0--0-----10-------10------10------10--|
    |---8----8--8----8--------------8----10--8----8--8----8--8----8-|
    |--0-------8-------2-----3-----8--------8-------8-------8-------|
    Escape reality with new pain
    
    [1:12]
      F5/D    F5/Bb   G4/E  G4/F  F5/Bb                Bb5 D5       x4
    |----------------------------------------------||---------------||
    |-------------------1-----1--------------------||---------------||
    |---10------10-------0-----0----10-------10----||-o-----------o-||
    |-----10------10---0--0--0--0-----10-------10--||-o--8-0-0-0--o-||
    |--8----8--8----8--------------8----10--8----8-||----8-0-0-0----||
    |-0-------8-------2-----3-----8--------8-------||----8-0-0-0----||
                                                       |->distortion on
    Then let the cycle start again
    
    [1:25]
          Asus2    Bsus4/A  G6       F7#11       x4
    ||----0--0-0-0-0--0-0-0-0--0-0-0-0--0-0-0----||
    ||----0--0-0-0-0--0-0-0-0--0-0-0-0--0-0-0----||
    ||-o--2--2-2-2-4--4-4-4-4--4-4-4-2--2-2-2--o-||
    ||-o--2--2-2-2-4--4-4-4-5--5-5-5-3--3-3-3--o-||
    ||----0--0-0-0-0--0-0-0-5--5-5-5-3--3-3-3----||
    ||----------------------5--5-5-5-3--3-3-3----||
    And all I keep thinking of are ways to die alone (x2)
    
    [1:45]
        F5/Bb                            E5/A F5/Bb
    |----------------------------------------------|
    |----------------------------------------------|
    |---10--------------------------------9----10--|
    |---10--------------------------------9----10--|
    |---8---------------------------------7----8---|
    |---8---------------------------------7----8---|
    Dream of content, a pain filtered farm, all I can say...
    
    [2:00]
          F5/D    F5/Bb   G4/E  G4/F  F5/Bb                               x2
    ||--------------------------------------------------------------------||
    ||----------------------1-----1---------------------------------------||
    ||-o----10------10-------0-----0----10-------10------10------10-----o-||
    ||-o------10------10---0--0--0--0-----10-------10------10------10---o-||
    ||-----8----8--8----8--------------8----10--8----8--8----8--8----8----||
    ||----0-------8-------2-----3-----8--------8-------8-------8----------||
    Dreams are bad when all they do is leave the truth behind
    Dreams are bad when negativity's a state of mind
    
    [2:20]
          A5  G5  B5    X4 A5  G5
    ||------------------||-------|
    ||----10--8---12----||-10--8-|
    ||-o--9---7---11--o-||-9---7-|
    ||-o--7---5---9---o-||-7---5-|
    ||----7---5---9-----||-7---5-|
    ||----7---5---9-----||-7---5-|
    
    [2:44]
          D  Bb C F# Bb D    Bb D        x4 Bb D    Bb D
    ||-----------------------------------||------------------|
    ||-----------------------------------||------------------|
    ||-o-------------------------------o-||------------------|
    ||-o--0--8-10-4--8-0-0-0--8-0-0-0--o-||-8-0-0-0--8-0-0-0-|
    ||----0--8-10-4--8-0-0-0--8-0-0-0----||-8-0-0-0--8-0-0-0-|
    ||----0--8-10-4--8-0-0-0--8-0-0-0----||-8-0-0-0--8-0-0-0-|
    
    [3:06]
      F5/D    F5/Bb   G4/E  G4/F  F5/Bb
    |--------------------------------------------------------------|
    |-------------------1-----1------------------------------------|
    |---10------10-------0-----0----10-------10------10------10----|
    |-----10------10---0--0--0--0-----10-------10------10------10--|
    |--8----8--8----8--------------8----10--8----8--8----8--8----8-|
    |-0-------8-------2-----3-----8--------8-------8-------8-------|
    Dreams are bad when all they do is leave the truth behind
    
      F5/D    F5/Bb   G4/E  G4/F  F5/Bb
    |--------------------------------|
    |-------------------1-----1------|
    |---10------10-------0-----0--10-|
    |-----10------10---0--0--0--0-10-|
    |--8----8--8----8-------------8--|
    |-0-------8-------2-----3-----8--|
    Dreams are bad
    
    [Top]
  • Trash

    Dropped D tuning one half step down (from low to high:Db-Ab-Db-Gb-Bb-Eb), written chords are relative to a "normal" Dropped-D

    [0:00]
    (sound of food packets ripping and spoken words:)
    I'll play something extraordinary
    
    (sound of sneaker squeaking, then sound of cupboard door opening and
     keyboard arranged for guitar:)
    eb|--18-16-14-13-14-13----14-13-11----11----------------------------0-|
    Bb|--------------------12-------------------13-12-12-12-12-12-12-12-0-|
    Gb|--------------------------------13----13-------------------------0-|
    Db|-----------------------------------------------------------------0-|
    Ab|-----------------------------------------------------------------0-|
    Db|-----------------------------------------------------------------0-|
    
    [0:18] (use big distortion + palm mutting)
    |-------------------------|------------------------|
    |-------------------------|------------------------|
    |-------------------------|------------------------|
    |-2p1p0-2--0-2--0-2--2-0--|-2p1p0-2--0-2--0-2--2-6-|
    |-------2--0-2--0-2--2-0--|-------2--0-2--0-2--2-6-|
    |-------2--0-2--0-2--2-0--|-------2--0-2--0-2--2-6-|
    
    |-------------------------|---------------------|
    |-------------------------|---------------------|
    |-------------------------|---------------------|
    |-2p1p0-2--0-2--0-2--2-0--|-2p1p0-2--0-2--2-6-6-|   REST
    |-------2--0-2--0-2--2-0--|-------2--0-2--2-6-6-|
    |-------2--0-2--0-2--2-0--|-------2--0-2--2-6-6-|
    Gain, gain
    
    [0:31]
    |-------------------------|-------------------------|
    |-------------------------|-------------------------|
    |-------------------------|-------------------------|
    |-2p1p0-2--0-2--0-2--2-0--|-2p1p0-2--0-2--0-2-2-2-2-|
    |-------2--0-2--0-2--2-0--|-------2--0-2--0-2-2-2-2-|
    |-------2--0-2--0-2--2-0--|-------2--0-2--0-2-2-2-2-|
                                                *******   *=PALM MUTE
    
    |-------------------------|---------------------|
    |-------------------------|---------------------|
    |-------------------------|---------------------|
    |-2p1p0-2--0-2--0-2--2-0--|-2p1p0-2--0-2--2-6-6-|   REST
    |-------2--0-2--0-2--2-0--|-------2--0-2--2-6-6-|
    |-------2--0-2--0-2--2-0--|-------2--0-2--2-6-6-|
    Gain
    
    [0:47]
      D5  G5    F5  G#5       D5  E5  F5    G5
    |-----------------------|---------------------|
    |-----------------------|---------------------|
    |-7-7-12-12-10-10-13-13-|-7-7-9-9-10-10-12-12-|
    |-7-7-12-12-10-10-13-13-|-7-7-9-9-10-10-12-12-|
    |-5-5-10-10--8--8-11-11-|-5-5-7-7-8--8--10-10-|
    |-----------------------|---------------------|
    One, two, three, four
    
    [0:52]
      D5  G5  F5  G#5   D5  E5  F5  G5    D5  G5  F5  G#5   D5  E5  F5  G5
    |-----------------|-----------------|-----------------|-----------------|
    |-----------------|-----------------|-----------------|-----------------|
    |-----------------|-----------------|-----------------|-----------------|
    |-0-0-5-5-3-3-6-6-|-0-0-2-2-3-3-5-5-|-0-0-5-5-3-3-6-6-|-0-0-2-2-3-3-5-5-|
    |-0-0-5-5-3-3-6-6-|-0-0-2-2-3-3-5-5-|-0-0-5-5-3-3-6-6-|-0-0-2-2-3-3-5-5-|
    |-0-0-5-5-3-3-6-6-|-0-0-2-2-3-3-5-5-|-0-0-5-5-3-3-6-6-|-0-0-2-2-3-3-5-5-|
    
    [1:04] First verse
      D5  G5  F5  G#5   D5  E5  F5  G5    D5  G5  F5  G#5   D5  E5  F5  G5
    |-----------------|-----------------|-----------------|-----------------|
    |-----------------|-----------------|-----------------|-----------------|
    |-----------------|-----------------|-----------------|-----------------|
    |-0-0-5-5-3-3-6-6-|-0-0-2-2-3-3-5-5-|-0-0-5-5-3-3-6-6-|-0-0-2-2-3-3-5-5-|
    |-0-0-5-5-3-3-6-6-|-0-0-2-2-3-3-5-5-|-0-0-5-5-3-3-6-6-|-0-0-2-2-3-3-5-5-|
    |-0-0-5-5-3-3-6-6-|-0-0-2-2-3-3-5-5-|-0-0-5-5-3-3-6-6-|-0-0-2-2-3-3-5-5-|
    Welcome! Nothing short of anarchy
    It's so hard to find out who you wanna be
    Welcome! Nothing short of anarchy
    It's so hard to find out who you wanna be - oh!
    
    [1:16] Main pattern (Daniel improvises around this):
    |-4-4-3-3----------|
    |----------3-3-----|
    |--------------1-1-|
    |------------------|
    |------------------|
    |------------------|
    
    [1:33]
    1st guitar:
      D5
    |-------------------------|-------------------------|
    |-------------------------|-------------------------|
    |-------------------------|-------------------------|
    |-0-0--0-0--0-0--0-0--0-0-|-0-0--0-0--0-0--0-0--0-0-|
    |-0-0--0-0--0-0--0-0--0-0-|-0-0--0-0--0-0--0-0--0-0-|
    |-0-0--0-0--0-0--0-0--0-0-|-0-0--0-0--0-0--0-0--0-0-|
    2nd guitar:
    |-------------------------|-------------------------|
    |-------------------------|-------------------------|
    |-------------------------|-------------------------|
    |-------------------------|-3-3--3-3--3-3--3-3--3-3-|
    |-------------------------|-------------------------|
    |-------------------------|-------------------------|
                                   =natural harmonics
    Go!
    
    [1:40] Second verse
    |-------------------------|-------------------------|
    |-------------------------|-------------------------|
    |-------------------------|-------------------------|
    |-2p1p0-2--0-2--0-2--2-0--|-2p1p0-2--0-2--0-2-2-2-2-|
    |-------2--0-2--0-2--2-0--|-------2--0-2--0-2-2-2-2-|
    |-------2--0-2--0-2--2-0--|-------2--0-2--0-2-2-2-2-|
                                                *******   *=PALM MUTE
    I couldn't find what you needed - ooh to be a double
    A big pill but you know that you need a poison
    
    |-------------------------|---------------------|
    |-------------------------|---------------------|
    |-------------------------|---------------------|
    |-2p1p0-2--0-2--0-2--2-0--|-2p1p0-2--0-2--2-6-6-|   REST
    |-------2--0-2--0-2--2-0--|-------2--0-2--2-6-6-|
    |-------2--0-2--0-2--2-0--|-------2--0-2--2-6-6-|
    Open, you need it but I returned the point of acceptance
    How brave, your parades never do much
    
    [1:52]
    ||-------------------------------------------|| x3
    ||-------------------------------------------||
    ||-o---------------------------------------o-||
    ||-o--0-0--0/2-2--2/3-3--3/5-5--0-0-5-5-3--o-||
    ||----0-0--0/2-2--2/3-3--3/5-5--0-0-5-5-3----||
    ||----0-0--0/2-2--2/3-3--3/5-5--0-0-5-5-3----||
    Violence!
    Hopeless fight!
    Call it straight!
    
    |----------------------------------------------------|
    |----------------------------------------------------|
    |----------------------------------------------------|
    |-0-0--0/2-2--2/3-3--3/5-5--0-0-5-5-3-3--0-0-5-5-3-3-|
    |-0-0--0/2-2--2/3-3--3/5-5--0-0-5-5-3-3--0-0-5-5-3-3-|
    |-0-0--0/2-2--2/3-3--3/5-5--0-0-5-5-3-3--0-0-5-5-3-3-|
    Big black steel cap dealt rejection
    
    [2:12]
      D5  G5  F5  G#5   D5  E5  F5  G5    D5  G5  F5  G#5   D5  E5  F5  G5
    |-----------------|-----------------|-----------------|-----------------|
    |-----------------|-----------------|-----------------|-----------------|
    |-----------------|-----------------|-----------------|-----------------|
    |-0-0-5-5-3-3-6-6-|-0-0-2-2-3-3-5-5-|-0-0-5-5-3-3-6-6-|-0-0-2-2-3-3-5-5-|
    |-0-0-5-5-3-3-6-6-|-0-0-2-2-3-3-5-5-|-0-0-5-5-3-3-6-6-|-0-0-2-2-3-3-5-5-|
    |-0-0-5-5-3-3-6-6-|-0-0-2-2-3-3-5-5-|-0-0-5-5-3-3-6-6-|-0-0-2-2-3-3-5-5-|
    Yeah, yeah
    Hey, hey, hey, hey
    Yay
    Ugggh!
    
    |---|-4-4-3-3------------2--s10-|
    |---|----------3-3-------3------|
    |---|--------------1-1----------|
    |-0-|---------------------------|
    |-0-|---------------------------|
    |-0-|---------------------------|
    
    [Top]
  • Spawn (Pre-Vitro Version)

    Dropped D tuning (from low to high:D-A-D-G-B-E)

    [0:00]
    e||--------------------------------------------|| x3
    B||--------------------------------------------||
    G||-o----------------------------------------o-||
    D||-o----------------------------------------o-||
    A||------6-5--5b6r5-----5b6r5---5b6r5----------||
    D||----0------------0-0-------0-------0-6-0----||
    
                   D5   F#5   G5    G#5
    |-----------------------------------|
    |-----------------------------------|
    |-----------------------------------|
    |--------------0--0-4-0-0-5-0-0-6-0-|
    |---6-5--5r6b5-0--0-4-0-0-5-0-0-6-0-|
    |-0------------0--0-4-0-0-5-0-0-6-0-|
    
    [0:13]
          D5         F#5   G5    G#5
    ||----------------------------------|| x4
    ||----------------------------------||
    ||-o----7-7-----------------------o-||
    ||-o----x-x--0-0-4-0-0-5-0-0-6-0--o-||
    ||------5-5--0-0-4-0-0-5-0-0-6-0----||
    ||----0------0-0-4-0-0-5-0-0-6-0----||
    
    [0:27] Guitars out
    Death becomes clearer through bloodshot eyes
    As a death from old age becomes nearer
    Why can't the livestock be free
    When trading soldiers for steak
    
    [0:40]
          D5         F#5   G5    G#5
    ||----------------------------------|| x2
    ||----------------------------------||
    ||-o----7-7-----------------------o-||
    ||-o----x-x--0-0-4-0-0-5-0-0-6-0--o-||
    ||------5-5--0-0-4-0-0-5-0-0-6-0----||
    ||----0------0-0-4-0-0-5-0-0-6-0----||
    Learn to evolve with the new transition
    To act upon a hypocritical vision
    
    (then guitars out for 2 bars)
    Discard the old and in with the new
    Discard the old and in with the fashion
    
          D5         F#5   G5    G#5
    ||----------------------------------|| x4
    ||----------------------------------||
    ||-o----7-7-----------------------o-||
    ||-o----x-x--0-0-4-0-0-5-0-0-6-0--o-||
    ||------5-5--0-0-4-0-0-5-0-0-6-0----||
    ||----0------0-0-4-0-0-5-0-0-6-0----||
    Learn to evolve with the new transition
    To act upon a hypocritical vision
    Learn to evolve, learn to, learn to evolve
    
    [1:06] with tremolo
    ||------------------------|| x4
    ||-----12p11--------------||
    ||-o------------11p10---o-||
    ||-o--------------------o-||
    ||------------------------||
    ||------------------------||
        (8 times) (8 times)
    
          Db  D# Db D Db   x12 D5
    ||----------------------||---|
    ||----------------------||---|
    ||-o--7-7-7-10-7-8-7--o-||---|
    ||-o--x-x-x-x--x-x-x--o-||-0-|
    ||----5-5-5-8--5-6-5----||-0-|
    ||----------------------||-0-|
    Who's the bad guy?
    
    [1:35]
      one guitar                    x2        two guitars       x2
    |---||--------------------------||--------------------------||
    |---||--------------------------||--------------------------||
    |---||-o----------------------o-||-o----------------------o-||
    |---||-o----------------------o-||-o----------------------o-||
    |---||--------------------------||--------------------------||
    |-3-||----0--4-5--0-1--0-3-0----||----0--4-5--0-1--0-3-0----||
    
    [1:43]
         two guitars + vocals   x8
    ||--------------------------||
    ||--------------------------||
    ||-o----------------------o-||
    ||-o----------------------o-||
    ||--------------------------||
    ||----0--4-5--0-1--0-3-0----||
    Bring on the ape farm
    Demolish the monkeys
    Drink up, drink up
    Look down on junkies
    A new hypocritical look and ambition
    The time has come to make the decision you...
    
    [1:59]
                                x16
    ||--------------------------||
    ||--------------------------||
    ||-o----------------------o-||
    ||-o----------------------o-||
    ||--------------------------||
    ||----0--4-5--0-1--0-3-0----||
    (A third plays this 5th chords in tremolo picking:)
         D5 D#5 C5 D#5      D5 F5  G5  E5
    ||------------------||----------------|
    ||------------------||----------------|
    ||-o--7--9--5--8--o-||--7--10--12--9--|
    ||-o--x--x--x--x--o-||--x--x---x---x--|
    ||----5--6--3--6----||--5--8---10--7--|
    ||------------------||----------------|
    Drink up, drink up, look down
    I'll hold it back, I'll hold it back (...)
    Discard the old, in with the fashion
    
    (And this part ends with:)
       G D  D G F D  F 
    |-------------------|
    |-------------------|
    |-------------------|
    |--5-0--0-5-3-0--1--|
    |--5-0--0-5-3-0--1--|
    |--5-0--0-5-3-0--1--|
            |--|
         (palm mutting)
    
    [2:27] End
    ||--------------------------------------------|| x3
    ||--------------------------------------------||
    ||-o----------------------------------------o-||
    ||-o----------------------------------------o-||
    ||------6-5--5b6r5-----5b6r5---5b6r5----------||
    ||----0------------0-0-------0-------0-6-0----|| *: natural harmonics 
                                   *****                only the 2nd time
    
                   D5   F#5   G5    G#5
    |-----------------------------------|
    |-----------------------------------|
    |-----------------------------------|
    |--------------0--0-4-0-0-5-0-0-6-0-|
    |---6-5--5b6r5-0--0-4-0-0-5-0-0-6-0-|
    |-0------------0--0-4-0-0-5-0-0-6-0-|
    
          D5         F#5   G5    G#5
    ||-----------------------------------|| x4
    ||-----------------------------------||
    ||-o----7-7------------------------o-||
    ||-o----x-x--0--0-4-0-0-5-0-0-6-0--o-||
    ||------5-5--0--0-4-0-0-5-0-0-6-0----||
    ||----0------0--0-4-0-0-5-0-0-6-0----||
    Death becomes clearer through bloodshot eyes
    Death becomes clearer through bloodshot eyes...
    
    [Top]
  • Wasted

    Cover of Black Flag. Standard tuning.

    [0:00] (Ben speaking + feedback)
    One Two Three Four
    
    [0:10]
       C5                                A#5             G#5     G5
    e|-------------------------------------------------------------------|
    B|-------------------------------------------------------------------|
    G|-5-5-5-5-5-5-5-5-5-5-5-5-5-5-5-5-5---------------------------------|
    D|-5-5-5-5-5-5-5-5-5-5-5-5-5-5-5-5-5-8-8-8-8-8-8-8-8-6-6-6-6-5-5-5-5-|
    A|-3-3-3-3-3-3-3-3-3-3-3-3-3-3-3-3-3-8-8-8-8-8-8-8-8-6-6-6-6-5-5-5-5-|
    E|-----------------------------------6-6-6-6-6-6-6-6-4-4-4-4-3-3-3-3-|
    Hey!
    
          A5        C5  A5        A#5  x4
    ||---------------------------------||
    ||---------------------------------||
    ||-o-----------------------------o-||
    ||-o--7-7-7-7-7-10--7-7-7-7-7-8--o-||
    ||----7-7-7-7-7-10--7-7-7-7-7-8----||
    ||----5-5-5-5-5-8---5-5-5-5-5-6----||
    
    [0:25]
      C5                                A#5             G#5     G5
    |-------------------------------------------------------------------|
    |-------------------------------------------------------------------|
    |-5-5-5-5-5-5-5-5-5-5-5-5-5-5-5-5-5---------------------------------|
    |-5-5-5-5-5-5-5-5-5-5-5-5-5-5-5-5-5-8-8-8-8-8-8-8-8-6-6-6-6-5-5-5-5-|
    |-3-3-3-3-3-3-3-3-3-3-3-3-3-3-3-3-3-8-8-8-8-8-8-8-8-6-6-6-6-5-5-5-5-|
    |-----------------------------------6-6-6-6-6-6-6-6-4-4-4-4-3-3-3-3-|
    I was so wasted
    
          A5        C5  A5        A#5  x4
    ||---------------------------------||
    ||---------------------------------||
    ||-o-----------------------------o-||
    ||-o--7-7-7-7-7-10--7-7-7-7-7-8--o-||
    ||----7-7-7-7-7-10--7-7-7-7-7-8----||
    ||----5-5-5-5-5-8---5-5-5-5-5-6----||
    I was so wasted
    I was a hippie
    I was a burnout
    I was a dropout I was out of my head
    I was a surfer
    I had a skateboard
    I was so heavy man, I lived on the strand
    
    [0:41]
      C5                                A#5             G#5     G5
    |-------------------------------------------------------------------|
    |-------------------------------------------------------------------|
    |-5-5-5-5-5-5-5-5-5-5-5-5-5-5-5-5-5---------------------------------|
    |-5-5-5-5-5-5-5-5-5-5-5-5-5-5-5-5-5-8-8-8-8-8-8-8-8-6-6-6-6-5-5-5-5-|
    |-3-3-3-3-3-3-3-3-3-3-3-3-3-3-3-3-3-8-8-8-8-8-8-8-8-6-6-6-6-5-5-5-5-|
    |-----------------------------------6-6-6-6-6-6-6-6-4-4-4-4-3-3-3-3-|
    I was so wasted
    
          A5        C5  A5        A#5  x4
    ||---------------------------------||
    ||---------------------------------||
    ||-o-----------------------------o-||
    ||-o--7-7-7-7-7-10--7-7-7-7-7-8--o-||
    ||----7-7-7-7-7-10--7-7-7-7-7-8----||
    ||----5-5-5-5-5-8---5-5-5-5-5-6----||
    I was so fucked up
    I was so messed up
    I was so screwed up I was out of my head
    I was so jacked up
    I was so drunk up
    I was so knocked out, I was out of my head
    
    [0:41]
      C5                                A#5             G#5     G5      A5
    |----------------------------------------------------------------------|
    |----------------------------------------------------------------------|
    |-5-5-5-5-5-5-5-5-5-5-5-5-5-5-5-5-5------------------------------------|
    |-5-5-5-5-5-5-5-5-5-5-5-5-5-5-5-5-5-8-8-8-8-8-8-8-8-6-6-6-6-5-5-5-5-7\-|
    |-3-3-3-3-3-3-3-3-3-3-3-3-3-3-3-3-3-8-8-8-8-8-8-8-8-6-6-6-6-5-5-5-5-7\-|
    |-----------------------------------6-6-6-6-6-6-6-6-4-4-4-4-3-3-3-3-5\-|
    I was so wasted
    I was wasted
    [Top]
  • Fix Me

    Cover of Black Flag. Standard tuning.

    [0:00]
           A5      B5        A5      C5 A5 C5    x2
    e||--------------------|---------------------||
    B||--------------------|---------------------||
    G||-o------------------|-------------------o-||
    D||-o--7-7-7-7-9-9-9-9-|-7-7-7-7-10--7-10--o-||
    A||----7-7-7-7-9-9-9-9-|-7-7-7-7-10--7-10----||
    E||----5-5-5-5-7-7-7-7-|-5-5-5-5-8---5-8-----||
    
    [0:04]
          A5      B5        A5      C5 A5 C5    x2
    ||--------------------|---------------------||
    ||--------------------|---------------------||
    ||-o------------------|-------------------o-||
    ||-o--7-7-7-7-9-9-9-9-|-7-7-7-7-10--7-10--o-||
    ||----7-7-7-7-9-9-9-9-|-7-7-7-7-10--7-10----||
    ||----5-5-5-5-7-7-7-7-|-5-5-5-5-8---5-8-----||
    Go!
    
    [0:10]
          A5      B5        A5      C5 A5 C5    x4
    ||--------------------|---------------------||
    ||--------------------|---------------------||
    ||-o------------------|-------------------o-||
    ||-o--7-7-7-7-9-9-9-9-|-7-7-7-7-10--7-10--o-||
    ||----7-7-7-7-9-9-9-9-|-7-7-7-7-10--7-10----||
    ||----5-5-5-5-7-7-7-7-|-5-5-5-5-8---5-8-----||
    Someday
    I'll feel no pain
    Someday
    I won't have a brain
    They'll take away the part that hurts
    and let the rest remain
    
    [0:19]
      D5   E5   E D C D C E D C D C
    |-------------------------------|
    |-------------------------------|
    |-------------------------------|
    |-7-7--9-9--9-7-5-7-5-9-7-5-7-5-|
    |-5-5--7-7--7-5-3-5-3-7-5-3-5-3-|
    |-------------------------------|
    Fix me
    Fix my head
    Fix me please, I don't wanna be dead
    
    [0:24]
          A5      B5        A5      C5 A5 C5    x4
    ||--------------------|---------------------||
    ||--------------------|---------------------||
    ||-o------------------|-------------------o-||
    ||-o--7-7-7-7-9-9-9-9-|-7-7-7-7-10--7-10--o-||
    ||----7-7-7-7-9-9-9-9-|-7-7-7-7-10--7-10----||
    ||----5-5-5-5-7-7-7-7-|-5-5-5-5-8---5-8-----||
    Someday
    We'll all be rich
    Someday
    I won't listen to you bitch
    I'll turn up the volume
    And you can hear all the shit we play just for you
    
    [0:24]
      D5   E5   E D C D C E D C D C
    |-------------------------------|
    |-------------------------------|
    |-------------------------------|
    |-7-7--9-9--9-7-5-7-5-9-7-5-7-5-|
    |-5-5--7-7--7-5-3-5-3-7-5-3-5-3-|
    |-------------------------------|
    Fix me
    Fix my head
    Fix me please, I don't wanna be dead
    Fix it
    [Top]
  • Minor Threat

    Standard tuning.
    Cover of Minor Threat (Baker/MacKaye/Nelson/Preslar).

    [0:00]
           D5/A    A5      E5/B    C5/G G5    x4
    e||---------------------------------------||
    B||---------------------------------------||
    G||-o-----------------------------------o-||
    D||-o--7-7-7-7-7-7-7-7-9-9-9-9-5-5-5-5--o-||
    A||----5-5-5-5-7-7-7-7-7-7-7-7-3-3-5-5----||
    E||----5-5-5-5-5-5-5-5-7-7-7-7-3-3-3-3----||
    
    [0:14]
          D5/A    A5      E5/B    C5/G G5    x4
    ||---------------------------------------||
    ||---------------------------------------||
    ||-o-----------------------------------o-||
    ||-o--7-7-7-7-7-7-7-7-9-9-9-9-5-5-5-5--o-||
    ||----5-5-5-5-7-7-7-7-7-7-7-7-3-3-5-5----||
    ||----5-5-5-5-5-5-5-5-7-7-7-7-3-3-3-3----||
    We're not the first, I hope we're not the last
    'Cause I know we're all heading for that adult crash
    The time is so little, the time belongs to us
    Why is everybody in such a fucking rush?!
    
    [0:25]
      B5      G5      B5      D5
    |-------------------------------|
    |-------------------------------|
    |-4-4-4-4---------4-4-4-4-7--7--|
    |-4-4-4-4-5-5-5-5-4-4-4-4-7--7--|
    |-2-2-2-2-5-5-5-5-2-2-2-2-5--5--|
    |---------3-3-3-3---------------|
    Make do with what you have
    Take what you can get
    Pay no mind to us
    We're just a minor threat
    
    [0:30]
       D5/A A5 E5/B C5/G G5  x4
    ||-----------------------||
    ||-----------------------||
    ||-o-------------------o-||
    ||-o--7-7-7-7-9-9-5-5--o-||
    ||----5-5-7-7-7-7-5-5----||
    ||----5-5-5-5-7-7-3-3----||
    We're just a minor threat
    
    [0:45]
          D5/A    A5      E5/B    C5/G G5    x4
    ||---------------------------------------||
    ||---------------------------------------||
    ||-o-----------------------------------o-||
    ||-o--7-7-7-7-7-7-7-7-9-9-9-9-5-5-5-5--o-||
    ||----5-5-5-5-7-7-7-7-7-7-7-7-3-3-5-5----||
    ||----5-5-5-5-5-5-5-5-7-7-7-7-3-3-3-3----||
    
    [0:56]
          D5/A    A5      E5/B    C5/G G5    x4
    ||---------------------------------------||
    ||---------------------------------------||
    ||-o-----------------------------------o-||
    ||-o--7-7-7-7-7-7-7-7-9-9-9-9-5-5-5-5--o-||
    ||----5-5-5-5-7-7-7-7-7-7-7-7-3-3-5-5----||
    ||----5-5-5-5-5-5-5-5-7-7-7-7-3-3-3-3----||
    Early finish, I was late to start
    I might be an adult, but I'm a minor at heart
    Go to college, be a man, what's the fucking deal!?
    It's not how old I am, it's how old I feel
    
    [1:08]
      B5      G5      B5      D5
    |-------------------------------|
    |-------------------------------|
    |-4-4-4-4---------4-4-4-4-7--7--|
    |-4-4-4-4-5-5-5-5-4-4-4-4-7--7--|
    |-2-2-2-2-5-5-5-5-2-2-2-2-5--5--|
    |---------3-3-3-3---------------|
    Take your time
    Try not to forget
    We never will
    We're just a minor threat
    
    [1:14]
       D5/A A5 E5/B C5/G G5  x4
    ||-----------------------||
    ||-----------------------||
    ||-o-------------------o-||
    ||-o--7-7-7-7-9-9-5-5--o-||
    ||----5-5-7-7-7-7-5-5----||
    ||----5-5-5-5-7-7-3-3----||
    We're just a minor threat
    
    [1:28]
      D5
    |----|
    |----|
    |-7\-|
    |-7\-|
    |-5\-|
    |----|
    And that's a promise
    [Top]
    silverchair orchestral tear clash-flow

    home | Guitar Tabs | Guitar Gear | MP3s | Lyrics | Discography | Pics | Downloads | Tours | Survey